Placebo - Bruise Pristine Chords & Tabs

 

Bruise Pristine Chords & Tabs

Placebo Chords & Tabs

Version: 3 Type: Tab 0 ratings
1 star 2 stars 3 stars 4 stars 5 stars
comments

Bruise Pristine Tab

|--12-------------------------------------------------|
|--12-------------------------------------------------|
|--12-harmonic-in-rhythm-then--9-9-9-9-9-9-9-9-9-9-9--|
|--12--------------------------9-9-9-9-9-9-8-8-8-8-8--|
|--12--------------------------7-7-7-7-7-7-7-7-7-7-7--|
|--12--------------------------0-0-0-0-0-0------------|

Rhy fig.1 main riff

|------------------------------------------------------|
|------------------------------------------------------|
|--9-9-9-9-9-9-9-9-9-9-9-------------------------------|
|--9-9-9-9-9-9-8-8-8-8-8-------------------------------|
|--7-7-7-7-7-7-7-7-7-7-7-10-10-10-10-10-10-10-9-9-9-9--|
|--0-0-0-0-0-0------------8--8--8--8--8--8--8-8-8-8-8--|

|----------------------------------------------------|
|----------------------------------------------------|
|----------------------------------------------------|
|----------------------------------------------------|
|--9-9-9-9-9-10-10-10-10-10-10-10-9-9-9-9-9-9-9-9-9--|
|--8-8-8-8-8--8--8--8--8--8--8--8-8-8-8-8-8-8-8-8-8--|
[ Tab from: http://www.guitartabs.cc/tabs/p/placebo/bruise_pristine_tab_ver_3.html ]
|----------------------------------------------|
|----------------------------------------------|
|--9-9-9-9-9-9-9-9-9-9-9-9-9-9-9-9-9-9-9-9-----|
|--9-9-9-9-9-8-8-8-8-8-9-9-9-9-9-8-8-8-8-8-----|
|--7-7-7-7-7-7-7-7-7-7-7-7-7-7-7-7-7-7-7-7-10--|
|--0-0-0-0-0-----------0-0-0-0-0------------8--|

|---------------------------------------------------------------|
|---------------------------------------------------------------|
|---------------------------------------------------------------|
|----------------------10-10-10-10-10---------------------------|
|--10-10-10-10-10-10-9--9--9--9--9--9-10-10-10-10-10-10-10-9-9--|
|---8--8--8--8--8--8-8--8--8--8--8--8--8--8--8--8--8--8--8-8-8--|

|---------------|
|---------------|
|---------------|
|--10-10-10-10--|
|---9--9--9--9--|
|---8--8--8--8--|

|----------------------------------0-0-1-1-2--|
|----------------------------------0-0-1-1-2--|
|------------------1-1-2-2-3-3-4-4-1-1-2-2-3--|
|--2-2-3-3-4-4-5-5-2-2-3-3-4-4-5-5-2-2-3-3-4--|
|--2-2-3-3-4-4-5-5-2-2-3-3-4-4-5-5-2-2-3-3-4--|
|--0-0-1-1-2-2-3-3-0-0-1-1-2-2-3-3-0-0-1-1-2--|

Rhy fig.2 "Bruise pristine..." part.

|--2-3-3--------------------------------------|
|--2-3-3--------------------------------------|
|--3-4-4--------------------------------------|
|--4-5-5-10-10-10-10-10-10-10-10-10-10-10-10--|
|--4-5-5-10-10-10-10-10-10-10-10-10-10-10-10--|
|--2-3-3--8--8--8--8--8--8--8--8--8--8--8--8--|

|--12------------|
|--12------------|
|--12--harmonic--|
|--12------------|
|--12------------|
|--12------------|
Comments