Placebo - Brick Shithouse Chords & Tabs

 

Brick Shithouse Chords & Tabs

Placebo Chords & Tabs

Version: 1 Type: Tab 0 ratings
1 star 2 stars 3 stars 4 stars 5 stars
comments

Brick Shithouse Tab

Intro:

C  -----------------------------------------------
C  -----------------------------------------------
G# -----------------------------------------------
D# --13--12-12-12-----12--------------------------
A# --12--11-11-11--13----13-----------------------Repeat
F  --11--11-11-11---------------------------------(x12) 
** * * *


Note:* Means harmonic, bludgeon/scrape the strings

Verse:

C  -----------------------------------------------
C  -----------------------------------------------
G# -----------------------------------------------
D# -----------------------------------------------
A# --12-12-12-12-12-12-12-13-13-13-13-13-13-------
F  --11-11-11-11-11-11-11-11-11-11-11-11-11------- 

[ Tab from: http://www.guitartabs.cc/tabs/p/placebo/brick_shithouse_tab.html ]
Chorus: ("Now your lover went and put me in the ground...")

C  -----------------------------------------------
C  -----------------------------------------------
G# --14-14-14-14-12-12-12-12-14-14-14-14-15-------
D# -----------------------------------------------
A# -----------------------------------------------(Cont.
F  -----------------------------------------------below)

"I'll be watching, when he's around..." bit:

C  -----------------------------------------------
C  -----------------------------------------------
G# --14-12-10-----------------------7-7-7-7-7-----
D# -----------7-7-7-10-10-10-10-10----------------
A# -----------------------------------------------
F  -----------------------------------------------
Comments