Placebo - Brick Shit House Chords & Tabs

 

Brick Shit House Chords & Tabs

Placebo Chords & Tabs

Version: 1 Type: Tab 0 ratings
1 star 2 stars 3 stars 4 stars 5 stars
comments

Brick Shit House Tab

   
INTRO

E---------------------------------------
B---------------------------------------
G---------------------------------------
D---------------------------------------
A--7-6-7-7-6-6-----6-6----6-7-6-7-7-6-6-
E----------------7------7--------------- REPEAT MANY TIMES

VERSE

E----------------------------------
B----------------------------------
G----------------------------------
D----------------------------------
A-13-13-13-13-13-13-14-14-14-14-14-
E-0--0--0--0--0--0--0--0--0--0--0-- (X4)
[ Tab from: http://www.guitartabs.cc/tabs/p/placebo/brick_shit_house_tab.html ]
E------------------------------------------------
B------------------------------------------------
G-15-15-15-15-13-13-13-13-15-15-15-15-16-16-16-16
D------------------------------------------------
A-13-13-13-13-11-11-11-11-13-13-13-13-14-14-14-14
E-0--0--0--0--0--0--0--0--0--0--0--0--0--0--0--0-

CHORUS

E----------------------------------------------
B----------------------------------------------
G--------------------------------------8-8-8-8-
D-9-9-9-11-11-11-8-8-8-8-8-11-11-11-11---------
A----------------------------------------------
E-7-7-7-7--7--7--7-7-7-7-7-7--7--7--7--7-7-7-7-

E------------------------------------------------
B------------------------------------------------
G-15-15-15-15-13-13-13-13-15-15-15-15-16-16-16-16
D------------------------------------------------
A-13-13-13-13-11-11-11-11-13-13-13-13-14-14-14-14
E-0--0--0--0--0--0--0--0--0--0--0--0--0--0--0--0-

THAT'S ALL !
END WITH INTRO
Comments