Placebo - Blue American Chords & Tabs

 

Blue American Chords & Tabs

Placebo Chords & Tabs

Version: 3 Type: Tab 0 ratings
1 star 2 stars 3 stars 4 stars 5 stars
comments

Blue American Tab

Tabbed By Rekon (First Tab)
Feel Free To Use This tabs
Placebo
Blue American

Standard Tuning Sounds As Good 99% correct sound

E---------------------------
B---------------------------
G--3-3-3-----------3-3-3----
D--3-3-3---4-4-4---3-3-3--4-
A--1-1-1---4-4-4---1-1-1--4-
E----------2-2-2----------2-

E----------------
B----------------
G--3-3-3---------   X3
D--3-3-3---4-4-4-
A--1-1-1---4-4-4-
E----------2-2-2-  
[ Tab from: http://www.guitartabs.cc/tabs/p/placebo/blue_american_tab_ver_3.html ]
E---------------------------
B---------------------------
G---------------------------
D--4-4-4--4-4-4--4-4-4--4---
A--2-2-2--4-4-4--2-2-2--4---
E--2-2-2--2-2-2--2-2-2--2---

E----------------
B----------------
G--3-3-3---------   X3
D--3-3-3---4-4-4-
A--1-1-1---4-4-4-
E----------2-2-2-


E---------------
B---------------
G---------------
D--4-4-4--4-4-4-    X4
A--2-2-2--4-4-4-
E--2-2-2--2-2-2-

Repeat Thats It Sound good

Rekon Out.........
Comments