Placebo - Bionic Chords & Tabs

 

Bionic Chords & Tabs

Placebo Chords & Tabs

Version: 1 Type: Tab 0 ratings
1 star 2 stars 3 stars 4 stars 5 stars
comments

Bionic Tab

|-----------------------------------------------------|
|-----------------------------------------------------|
|--7-7-7-7-7-7-7-7-7-7-7-7-7-7-7-7-11-11-11-11-11-11--|
|--7-7-7-7-7-7-7-7-7-7-7-7-7-7-7-7-11-11-11-11-11-11--|
|--5-5-5-5-5-5-5-5-5-5-5-5-5-5-5-5--9--9--9--9--9--9--|
|-----------------------------------------------------|

|---------------------------------|
|---------------------------------|
|--11-11-11-11-11-11-11-11-11-11--|
|--11-11-11-11-11-11-11-11-11-11--|
|---9--9--9--9--9--9--9--9--9--9--|
|---------------------------------|

Rhy fig.1 "Harder, faster..." bit.

|-----------------------------------------------------|
|-----------------------------------------------------|
|-----------------------------------------------------|
|--7-7-7-7-7-7-7-7-7-7-7-7-7-7-7-7-14-14-14-14-14-14--|
|--0-0-0-0-0-0-0-0-0-0-0-0-0-0-0-0-0--0--0--0--0--0---|
|-----------------------------------------------------|

|---------------------------------|
|---------------------------------|
|---------------------------------|
|--14-14-14-14-14-14-14-14-14-14--|
|---0--0--0--0--0--0--0--0--0--0--|
|---------------------------------|

Rhy fig.2 "None of you can make the grade..." bit.
[ Tab from: http://www.guitartabs.cc/tabs/p/placebo/bionic_tab.html ]
|--------------------------------------------------------------------|
|--------------------------------------------------------------------|
|--14-14-12-12-11-11-11-11-11-11-11-12-14-12-11-12-12-12-11-11-11-6--|
|--------------------------------------------------------------------|
|--------------------------------------------------------------------|
|--------------------------------------------------------------------|

|-----------------------------------------------------------|
|-----------------------------------------------------------|
|--6-6-7-7-7-7-x3-then-14-14-12-12-11-11-11-11-11-11-11-12--|
|-----------------------------------------------------------|
|-----------------------------------------------------------|
|-----------------------------------------------------------|

|------------------------------------------------------------|
|------------------------------------------------------------|
|--14-12-11-18-18-18-18-18-18-18-18-19-19-19-19-19-19-19-19--|
|------------------------------------------------------------|
|------------------------------------------------------------|
|------------------------------------------------------------|

Rhy fig.3 instrumental bit.


**************************harmonics******************************
|--19-19-19-19-19-19-19-19-19-19-19-24-24-24-24-12-12-12-12-12-12-12--|
|--19-19-19-19-19-19-19-19-19-19-19-24-24-24-24-12-12-12-12-12-12-12--|
|---------------------------------------------------------------------|
|---------------------------------------------------------------------|
|---------------------------------------------------------------------|
|---------------------------------------------------------------------|

***********************
|--12-12-12-12-17-17-17-17--|
|--12-12-12-12-17-17-17-17--|
|---------------------------|
|---------------------------|
|---------------------------|
|---------------------------|

Rhy fig.4 end harmonic bit.
Comments