Placebo - Bionic Live Chords & Tabs

 

Bionic Live Chords & Tabs

Placebo Chords & Tabs

Version: 1 Type: Tab 0 ratings
1 star 2 stars 3 stars 4 stars 5 stars
comments

Bionic Live Tab

bionic live in paris

afinada en tonos normales solo la 1ra igual a la 2da

placebo

verso
---------------------------------------|
---------------------------------------|
--9----------13------------------------|
--9----------13------------------------|
--7----------11------------------------|
---------------------------------------|

coro
-----------------------------------------------------------------|
-----------------------------------------------------------------|
-16-16-14-14-13-13-13-13-13-13-13-14-16-14-13--------------------|
-----------------------------------------------------------------|
-----------------------------------------------------------------|
-----------------------------------------------------------------|


-----------------------------------------------------------------|
-----------------------------------------------------------------|
-14-14-14-13-13-13-8-8-8-8-9-9-9-x muchas veces------------------|
-----------------------------------------------------------------|
-----------------------------------------------------------------|
-----------------------------------------------------------------|
[ Tab from: http://www.guitartabs.cc/tabs/p/placebo/bionic_live_tab.html ]
coro (último cachito)
-----------------------------------------------------------------|
-----------------------------------------------------------------|
-16-16-14-14-13-13-13-13-13-13-13-14-16-14-16/20x8-21x8----------|
-----------------------------------------------------------------|
-----------------------------------------------------------------|
-----------------------------------------------------------------|


verso
---------------------------------------|
---------------------------------------|
--9----------13------------------------|
--9----------13------------------------|
--7----------11------------------------|
---------------------------------------|


otra vez el coro

esta parte va silenciando las cuerdas con la palma
-18-x11--21-x4--15-x11--17-x4--y se repite-----------------------|
-18-x11--21-x4--15-x11--17-x4------------------------------------|
-----------------------------------------------------------------|
-----------------------------------------------------------------|
-----------------------------------------------------------------|
-----------------------------------------------------------------|

ultimas notas
---------------------------------------|
-20-20-20-18---------------------------|
---------------------------------------|
---------------------------------------|
---------------------------------------|
---------------------------------------|


alberto si estas leyendo esto ojalá te mueras
Comments