Placebo - Bionic Chords & Tabs

 

Bionic Chords & Tabs

Placebo Chords & Tabs

Version: 3 Type: Bass Tab 0 ratings
1 star 2 stars 3 stars 4 stars 5 stars
comments

Bionic Bass Tab

   
Whilst learning the original tab i noticed some stuff from the song which were missing
so i took the time to correct it, i hope its right ,its my first tab, please rate. :)

Tuning:Ab
       Eb
       Bb
       F

Intro:

Ab|--7-7-7-7-7-7-7-7-7-7-7-7-7-7-7-7---18-18-18-18-18-18-18-18-18-18-18-18-|
Eb|--0-0-0-0-0-0-0-0-0-0-0-0-0-0-0-0----0--0--0--0--0--0--0--0--0--0--0--0-|
Bb|------------------------------------------------------------------------|
 F|------------------------------------------------------------------------|

Ab|-18-18-18-18--|
Eb|--0--0--0--0--|
Bb|--------------|x2
 F|--------------|

Ab|--7-7-7-7-7-7-7-7-7-7-7-7-7-7-7-7---18-18-19-18-18-19-18-18-19-14-14-14|
Eb|--0-0-0-0-0-0-0-0-0-0-0-0-0-0-0-0----0--0--0--0--0--0--0--0--0--0--0--0|
Bb|-----------------------------------------------------------------------|x2
 F|-----------------------------------------------------------------------|

Verse: Harder, Faster, Forever After

Ab|--7-7-7-7-7-7-7-7-7-7-7-7-7-7-7-7---18-18-19-18-18-19-18-18-19-14-14-14|
Eb|--0-0-0-0-0-0-0-0-0-0-0-0-0-0-0-0----0--0--0--0--0--0--0--0--0--0--0--0|
Bb|-----------------------------------------------------------------------|x4
 F|-----------------------------------------------------------------------|

Pre Chorus:None Of you Can Make The Grade
[ Tab from: http://www.guitartabs.cc/tabs/p/placebo/bionic_btab_ver_3.html ]
Ab|--11-11-11-12---11-11-11-12---11-11-11-12---11-11-11-12---18-18-18-18-|
Eb|---0--0--0--0----0--0--0--0----0--0--0--0----0--0--0--0----0--0--0--0-|
Bb|----------------------------------------------------------------------|
 F|----------------------------------------------------------------------|

Ab|--18-18-18-18---18-18-18-18---18-14-14-14|
Eb|---0--0--0--0----0--0--0--0----0--0--0--0|x4
Bb|-----------------------------------------|
 F|-----------------------------------------|

Chorus:

Ab|------------------------------------------------------------------|
Eb|------------------------------------------------------------------|
Bb|--3-3-3-3-3-3-3-3-3-3-3-3-3-3-3-3---------------------------------|
 F|----------------------------------1-1-1-1-1-1-1-1-1-1-1-1-1-1-1-1-|

Ab|-----------------------------------------------------------------|
Eb|-----------------------------------------------------------------|
Bb|--5-5-5-5-5-5-5-5-5-5-5-5-5-5-5-5--------------------------------|x2
 F|----------------------------------1-1-1-1-1-1-1-1-1-1-1-1-1-1-1-1|

Verse x4
Pre Chorus x4
Chorus x2
Pre Chorus x2 (on second time Instead of playing 13-18s and 3-14s, play 8-               18s and 8-19s)
Chorus x2

Outro:
Ab|--11-11-11-12---11-11-11-12---11-11-11-12---11-11-11-12---------------|
Eb|---0--0--0--0----0--0--0--0----0--0--0--0----0--0--0--0---13-13-13-14-|
Bb|-----------------------------------------------------------0--0--0--0-|
 F|----------------------------------------------------------------------|

Ab|-----------------------------------------|
Eb|--13-13-13-14---13-13-13-14---13-13-13-14|
Bb|---0--0--0--0----0--0--0--0----0--0--0--0|x2
 F|-----------------------------------------|

Ab|--11~---------------11~-----------|
Eb|-----------12~--------------12~---|
Bb|----------------------------------|
 F|----------------------------------|

 Any corrections email me at little_ste@hotmail.com
Comments