Placebo - Allergic To Thoughts Of Mother Earth Chords & Tabs

 

Allergic To Thoughts Of Mother Earth Chords & Tabs

Placebo Chords & Tabs

Version: 1 Type: Bass Tab

Allergic To Thoughts Of Mother Earth Bass Tab

   
PLACEBO - ALLERGIC (TO THOUGHTS OF MOTHER EARTH)
Afinado normal (EADG)
Por: LUIS GUSTAVO HERNÁNDEZ COLLADO

intro/verso
G|------------------------|
D|------------------------|  x8
A|------------6-6-6-6-6-6-|
E|4-4-4-4-4-4-------------|

pre-coro
G|------------------------|
D|3-3-3-3-3-3-1-1-1-1-1-1-|  x4
A|------------------------|
E|------------------------|

verso
G|------------------------|
D|------------------------|  x4
A|------------6-6-6-6-6-6-|
E|4-4-4-4-4-4-------------|

pre-coro
G|------------------------|
D|3-3-3-3-3-3-1-1-1-1-1-1-|  x4
A|------------------------|
E|------------------------|

coro
G|------------------------|
D|------------------------|  x3
A|------------------------|
E|4-4-4-4-4-4-3-3-3-3-3-3-|
[ Tab from: http://www.guitartabs.cc/tabs/p/placebo/allergic_to_thoughts_of_mother_earth_btab.html ]
G|------------------------|
D|------------------------|  x1
A|------------------------|
E|4-4-4-4-4-4-6-6-6-6-6-6-|

bridge
G|------------------------|
D|------------------------|  x4
A|3-3-3-3-3-3-1-1-1-1-1-1-|
E|------------------------|

coro
G|------------------------|
D|------------------------|  x3
A|------------------------|
E|4-4-4-4-4-4-3-3-3-3-3-3-|

G|------------------------|
D|------------------------|  x1
A|------------------------|
E|4-4-4-4-4-4-6-6-6-6-6-6-|

pre-coro
G|------------------------|
D|3-3-3-3-3-3-1-1-1-1-1-1-|  x4
A|------------------------|
E|------------------------|

bridge
G|------------------------|
D|------------------------|  x4
A|3-3-3-3-3-3-1-1-1-1-1-1-|
E|------------------------|

outro
G|------------------------|
D|------------------------|  x4
A|------------------------|
E|4-4-4-4-4-4-4-4-4-4-4-4-|