Pj Harvey - Big Exit Chords & Tabs

 

Big Exit Chords & Tabs

Pj Harvey Chords & Tabs

Version: 1 Type: Chords 0 ratings
1 star 2 stars 3 stars 4 stars 5 stars
comments

Big Exit Chords

   
The time is 6 bits.      Each  " . "  is one bit

chords for G(m)7  (then follow the mélody) :

e|----3--------3-----
B|----3--------3-----
G|----0--------0-----
D|----0--------3-----
A|----x--------x-----
E|----3--------3-----

[ Tab from: http://www.guitartabs.cc/tabs/p/pj_harvey/big_exit_crd.html ]
     Gm      Gm(A)    Gm(Bb)
e|---(3)------(3)-------(3)
B|----3--------3---------3
G|----3--------3---------3
D|----0--------0---------0
A|----x--------0---------1
E|----3--------x---------x




G(m)7      G(m)7      G(m)7      G(m)7         (2 times)
......     ......     ......     ......

chorus:
Dm   F     Bb   C                   (4 times)
....  ..   ....  ..

bridge:
Gm    Gm(A)   Gm(Bb)    Gm(A)   Gm(G)  (8 times)
..    ..      ..  ..    ..      ..

Gm
......
(back to the top)
Comments