Pixies - Where Is My Mind Chords & Tabs

 

Where Is My Mind Chords & Tabs

Pixies Chords & Tabs

Version: 6 Type: Tab 0 ratings
1 star 2 stars 3 stars 4 stars 5 stars
comments

Where Is My Mind Tab

|-0---4---4---5---------------------| 
|-0---5---4---5---------------------| 
|-1---6---5---6---------------------| 
|-2---6---6---7---------------------| 
|-2---4---6---7---------------------| 
|-0---4---4---5---------------------| 


|--------------------------------| 
|---9---9---9---9---9---9--------| 
|-9---9---9---9---8---8---9r8h9--| 
|--------------------------------| 
|--------------------------------| 
|--------------------------------| 

|-------------------| 
|-------------------| 
|------6------------| 
|-2----6----6----7--| 
|-2----4----6----7--| 
|-0---------4----5--| 



|-------------------------------------| 
|-------------------------------------| 
|----------6-6-6-6--------------------| 
|-2-2-2-2--6-6-6-6--6-6-6-6--7-7-7-7--| 
|-2-2-2-2--4-4-4-4--6-6-6-6--7-7-7-7--| 
|-0-0-0-0-----------4-4-4-4--5-5-5-5--| 
pm . . . . . . . . . . 


2 guitars play this solo.. 
[ Tab from: http://www.guitartabs.cc/tabs/p/pixies/where_is_my_mind_tab_ver_6.html ]
1 
|-------------------------------------------| 
|--9b---9b----------------------------8\10--| 
|--9b---9b-----9b--9r-9-9-7----7---9--------| 
|----------------------------9--------------| 
|-------------------------------------------| 
|-------------------------------------------| 
|2 | 
|-------------------------------------------| 
|--7-----7----------------------------------| 
|--9b---9b----9b--9r-9-9-7-7----7--9--7-----| 
|------------------------------9----------9-| 
|-------------------------------------------| 
|-------------------------------------------| 

1 
|--------10-12-12-12b-r-13b--r-13b--r-13b---| 
|-10-12-------------------------------------| 
|-------------------------------------------| 
|-------------------------------------------| 
|-------------------------------------------| 
|-------------------------------------------| 
|2 | 
|-------------10---12b--r-12b--r-12b--r-12b-| 
|-----7-10-12-------------------------------| 
|-7-9---------------------------------------| 
|-------------------------------------------| 
|-------------------------------------------| 
|-------------------------------------------|
Comments