Pixies - Where Is My Mind Chords & Tabs

 

Where Is My Mind Chords & Tabs

Pixies Chords & Tabs

Version: 4 Type: Tab 3 ratings
1 star 2 stars 3 stars 4 stars 5 stars
comments

Where Is My Mind Tab

#----------------------------------PLEASE NOTE---------------------------------#
#This file is the author's own work and represents their interpretation of the #
#song. You may only use this file for private study, scholarship, or research. #
#------------------------------------------------------------------------------#

Song-Where Is My Mind?
Artist-The Pixies
Tabbed out by Jake Regier (jregier@hotmail.com

Guitar 1 - play this throughout the whole song:
e|---------------------------------------------------------------------------|
B|---------------------------------------------------------------------------|
G|-9-9-9--6-6-6--------------------------------------------------------------|
D|-9-9-9--6-6-6--6-6-6--7-7-7-7-7-7------------------------------------------|
A|-7-7-7--4-4-4--6-6-6--7-7-7-7-7-7------------------------------------------|
E|---------------4-4-4--5-5-5-5-5-5------------------------------------------|
[ Tab from: http://www.guitartabs.cc/tabs/p/pixies/where_is_my_mind_tab_ver_4.html ]
After Guitar 1 plays that twice, the bass, Guitar 2 and the drums come in.
Guitar 2 - Pre-Verse/Verse:
e|---------------------------------------------------------------------------|
B|---9---9---9---9---9---9---------------------------------------------------|
G|-9---9---9---9---8---8---9-9-8-9-------------------------------------------|
D|---------------------------------------------------------------------------|
A|---------------------------------------------------------------------------|
E|---------------------------------------------------------------------------|

Guitar 2 rests after the verse/for the chorus.
Guitar 2 - Post-Chorus:
e|---------------------------------------------------------------------------|
B|---------------------------------------------------------------------------|
G|---------------------------------------------------------------------------|
D|---------------------------------------------------------------------------|
A|---4-----------------------------------------------------------------------|
E|-0---4-5-------------------------------------------------------------------|
Comments