Pixies - Where Is My Mind Chords & Tabs

 

Where Is My Mind Chords & Tabs

Pixies Chords & Tabs

Version: 3 Type: Tab 4 ratings
1 star 2 stars 3 stars 4 stars 5 stars
comments

Where Is My Mind Tab

                                               where is my mind
                                                      by:
                                                    pixies      
                                            tabbed by sadistik slave
     
first verse  sounds like an acustic guitar play througout song  
e  ---0--0---5--5---4--4---5-5-5-5-5-5-5-5-----
b  ---0--0---5--5---4--4---5-5-5-5-5-5-5-5-----
g  ---1--1---6--6---5--5---6-6-6-6-6-6-6-6-----
d  ---2--2---6--6---6--6---6-6-6-6-6-6-6-6-----
a  ---2--2---4--4---6--6---7-7-7-7-7-7-7-7-----
e  ---0--0---4--4---4--4---5-5-5-5-5-5-5-5-----

chorus play as many times as necessary
e  -----5--5--5--5--5--5--------
b  ---6--6--6--6--5--5--6-6-5-6-
g  -----------------------------
d  -----------------------------
a  -----------------------------
e  -----------------------------
[ Tab from: http://www.guitartabs.cc/tabs/p/pixies/where_is_my_mind_tab_ver_3.html ]
2nd verse play with distortion
e  ---------------------------
b  ---------------------------
g  ---------------------------
d  ---------------------------
a  ---4-----------------------
e  -0---4-5-------------------


3rd verse play with distortion   
e  ---0--0---5--5---4--4---5-5-5-5-5-5-5-5------------------------
b  ---0--0---5--5---4--4---5-5-5-5-5-5-5-5------------------------
g  ---1--1---6--6---5--5---6-6-6-6-6-6-6-6-----6---4-4-4-4-4-4----
d  ---2--2---6--6---6--6---6-6-6-6-6-6-6-6-----6---2-2-2-2-2-2----
a  ---2--2---4--4---6--6---7-7-7-7-7-7-7-7-----4---2-2-2-2-2-2----
e  ---0--0---4--4---4--4---5-5-5-5-5-5-5-5------------------------

play till ending
again play as many times as necessary
e  -----5--5--5--5--5--5--------
b  ---6--6--6--6--5--5--6-6-5-6-
g  -----------------------------
d  -----------------------------
a  -----------------------------
e  -----------------------------


listen to the song to figure out how many times these riffs go on
sorry no solo	
Comments