Pixies - Wave Of Mutilation Chords & Tabs

 

Wave Of Mutilation Chords & Tabs

Pixies Chords & Tabs

Version: 1 Type: Tab 0 ratings
1 star 2 stars 3 stars 4 stars 5 stars
comments

Wave Of Mutilation Tab

   
Tabbed by:CMM
Email: colin_michael_muppet@hotmail.com

Tuning:Standard

Black Francis: Acoustic

(Intro/Chorus Chords)
e|-1----0--------|
B|-1----2----3---|
G|-2----2----3---|
D|-3----2----3---|
A|-3----0----1---|
E|-1-------------|

(Verse)
e|-6--7--3-1--|
B|-6--7--3-1--|
G|-7--6--4-2--|
D|-8--7--5-3--|
A|-8--7--5-3--|
E|-6--5--3-1--|

NOTE: No strumming, played as written.

(Post Chorus Chords)
e|-1-----|
B|-1--3--|
G|-2--3--|
D|-3--3--|
A|-3--1--|
E|-1-----|


Joey Santiago: Electric

(Intro Guitar)
e|-----------------------------------------|
B|-6-5-6--------6-5-6----------------------|
G|--------5------------7-----5-3-----------|
D|----------------------------------3-0----|
A|-----------------------------------------|
E|-----------------------------------------|
[ Tab from: http://www.guitartabs.cc/tabs/p/pixies/wave_of_mutilation_tab.html ]
(Intro pt.2/Chorus)
e|--------------------------|
B|-6-6-6-6-5-5-5-5-6-6-6-6--|
G|--------------------------|
D|--------------------------|
A|--------------------------|
E|--------------------------|

(Ending on)
e|-1--|
B|-1--|
G|-2--|
D|-3--|
A|-3--|
E|-1--|

(Verse)
e|-6--7--3-1--|
B|-6--7--3-1--|
G|-7--6--4-2--|
D|-8--7--5-3--|
A|-8--7--5-3--|
E|-6--5--3-1--|

NOTE: No strumming, played as written.

(PreChorus)
e|-----------------------|
B|-----------------------|
G|-5-----6------7----10--|
D|-x-----x------x-----x--|
A|-3-----4------5-----8--|
E|-----------------------|

(Post Chorus Chords)
e|-1-----|
B|-1--3--|
G|-2--3--|
D|-3--3--|
A|-3--1--|
E|-1-----|

(Last Chorus Fill)
e|-12-12-----12-12----12----12----12----12------|
B|-----------------------11----11----11----11---|
G|----------------------------------------------|
D|----------------------------------------------|
A|----------------------------------------------|
E|----------------------------------------------|


| /  slide up
| \  slide down
| h  hammer-on
| p  pull-off
| ~  vibrato
| +  harmonic
| x  Mute note
===============================================================================
Comments