Pixies - Vamos Chords & Tabs

 

Vamos Chords & Tabs

Pixies Chords & Tabs

Version: 1 Type: Tab 0 ratings
1 star 2 stars 3 stars 4 stars 5 stars
comments

Vamos Tab

   
#----------------------------------PLEASE NOTE---------------------------------#
#This file is the author's own work and represents their interpretation of the #
#song. You may only use this file for private study, scholarship, or research. #
#------------------------------------------------------------------------------##
}`KX-P1081€
}Vamos - Pixies

transcibed by Adam Farmer (Hang Wire)

You'll have to work out where to put all
the parts so listen to the record.


Rhythm guitar

e-------------------------------------
b-------------------------------------
g-------------------------------------
d-------------------------------------
a-2--2--2--2--2--2--------------------
E-0--0--0--0--3--3--------------------

ad lib on above throughout entire song except
for chorus which goes :

Bm                     G
That maid Maria she is really OK

        E      G      A      B   
Vamos a jurgar por la playa


Lead guitar

[ Tab from: http://www.guitartabs.cc/tabs/p/pixies/vamos_tab.html ]
e-------------------------------------
b---9--7--11--14>>>(b)15--------------
g---9--7--11--14>>>(b)15--------------
d-------------------------------------
a-------------------------------------
E-------------------------------------


e---\15--\11--\11--\11--\11-----------
b-------------------------------------
g-------------------------------------
d-------------------------------------
a-------------------------------------
A-------------------------------------
repeat above 5 times


Chorus
e-------------------------------------
b-------------------------------------
g--9--12--14--16----------------------
d--9--12--14--16----------------------
a-------------------------------------
E-------------------------------------
repeat above 4 times??


then 
Ö:F7 
Š
e----------------------------------0--
b--9--7--11--14>>>(b)15--14--14----0--
g--9--7--11--14>>>(b)15----14--14--0--
d----------------------------------0--
a-------------------------------------
E-------------------------------------
keep notes bent to pitch of fifteenth
until playing open notes.


The whole solo section is based on making a
almighty noise with open strings (no chords).
Use feedback, waggling the toggle switch, quickly
turning the volume knob on the guitar up and down
and scratching the strings with your pick or a 
slide or anything, right from the bridge up to 
the nut. Make it up as you go along and have fun.
Comments