Pixies - U Mass Chords & Tabs

 

U Mass Chords & Tabs

Pixies Chords & Tabs

Version: 1 Type: Tab 0 ratings
1 star 2 stars 3 stars 4 stars 5 stars
comments

U Mass Tab

U-Mass by Pixies
I didn't see this song on the website ao I put It on here.
Intro/Verse
e:--------------------------------------------]
B:--------------------------------------------]
G:----------3333-1----------------------------]
D:--3333-1--5555-3----------------------------]
A:--5555-3--5555-3----------------------------]
E:--5555-3------------------------------------]
Do that until chorus...
e:--------------------------------------------]
B:--------------------------------------------]
G:-----------33xx111--------------------------]
D:--33xx111--33xx333--------------------------]
A:--55xx333--55xx333--------------------------]
E:--55xx333-----------------------------------]
Enjoy
[ Tab from: http://www.guitartabs.cc/tabs/p/pixies/u_mass_tab.html ]
Comments