Pixies - Monkey Gone To Heaven Chords & Tabs

 

Monkey Gone To Heaven Chords & Tabs

Pixies Chords & Tabs

Version: 4 Type: Tab 0 ratings
1 star 2 stars 3 stars 4 stars 5 stars
comments

Monkey Gone To Heaven Tab

SONG: MONKEY GONE TO HEAVEN
ARTIST: PIXIES
ALBUM: DOOLITTLE
Tabbed by El Benno

Chorus Riff
|---------------|
|---------------|
|---------7\4/7-|
|-2-4-4-7-7\4/7-|
|-2-4-4-7-5\2/5-|
|-0-2-2-5-------|

Bridge Riff
|---------000-2-222-000-2-222-000-2-222---------|
|---------222-3-333-222-3-333-222-3-333-0-2-2-5-|
|-----------------------------------------------|
|-2-4-4-7---------------------------------------|
|-2-4-4-7---------------------------------------|
|-0-2-2-5---------------------------------------|

Verse Riff
|-------|
|-------|
|-7\4/7-|
|-7\4/7-|
|-5\2/5-|
|-------|
[ Tab from: http://www.guitartabs.cc/tabs/p/pixies/monkey_gone_to_heaven_tab_ver_4.html ]
Guitar Solo
|-------------000-2-222-000-2-222---------------000-2-222-000-0-000-|
|-7b-6b-5b-4b-222-3-333-222-3-333-5~7b-6b-5b-4b-222-3-333-222-0-000-|
|-------------------------------------------------------------------|
|-------------------------------------------------------------------|
|-------------------------------------------------------------------|
|-------------------------------------------------------------------|

Guitar Solo Continued
|-000-2-222---------|
|-222-3-333-0-2-2-5-|
|-------------------|
|-------------------|
|-------------------|
|-------------------|

End Riff
|-------------000-2-222-000-2-222-000-2-222-------------|
|-7b-6b-5b-4b-222-3-333-222-3-333-222-3-333-7b-6b-5b-4b-|
|-------------------------------------------------------|
|-------------------------------------------------------|
|-------------------------------------------------------|
|-------------------------------------------------------|

End Riff Continued
|-000-2-222-000-2-222-------------|
|-222-3-333-222-3-333-5~----------|
|-------------------------------7-|
|-----------------------2-4-4-7-7-|
|-----------------------2-4-4-7-5-|
|-----------------------0-2-2-5---|

ORDER:
Chorus Riff x1
   (Bass)
Chorus Riff x2
Bridge Riff x1
Verse Riff  x1
   (Bass)
Chorus Riff x2
Guitar Solo x1
Verse Riff  x1
Chorus Riff x4
End Riff    x1
Comments