Pixies - Hey Chords & Tabs

 

Hey Chords & Tabs

Pixies Chords & Tabs

Version: 1 Type: Tab 0 ratings
1 star 2 stars 3 stars 4 stars 5 stars
comments

Hey Tab

   
#----------------------------------PLEASE NOTE---------------------------------#
#This file is the author's own work and represents their interpretation of the #
#song. You may only use this file for private study, scholarship, or research. #
#------------------------------------------------------------------------------#

Hey
  by The Pixies
  off the Album 'Doolittle'

tabber unknown 


[Intro, Verse]

  1st Guitar:

e:|-------x-------2----|
b:|-3---x-x------3-2---|
g:|-2/4-x----2--2----4-|


  Bass:

a:|-----0-1-2--2--2-3-4-5---5-5--------------------------|
e:|-2----------------------------0-2-3--3-3--0-1-2--2-2--|



[were chained... - part]


  1st Guitar: 

   G        Em          B


  Bass:

a:|---------------------------------2-2-2-2-2-2-2-2-|
e:|-3-3-3-3-3-3-3-3-0-0-0-0-0-0-0-0-----------------|



[Solo]


  2nd Guitar:
[ Tab from: http://www.guitartabs.cc/tabs/p/pixies/hey_tab.html ]
e:|---------------------------------------------------------
b:|---------------------------------------------------------
g:|-7--------------6----------------------------------------
d:|----9-7------------7-------------------------------------
a:|---------9-7/9-------9-7-7/9--7-5-----------7-5----------
e:|----------------------------------7--5-5/7------7--5-5/7-


  Bass while Solo same as Intro:

a:|--------------------0-1-2--2--2-3-4-5---5-5--------|
e:|-3--3-3--0-1-2--2-2-------------------------0-2-3--|



  2nd Guitar:

e:|-----------------------------------------------------------------|
b:|-----------------------------------------------------------------|
g:|-7---7-7-9-11/10----7-9-11-19--16-14------------16-14------------|
d:|-------------------------------------16--14/16--------16--14/16--|
a:|-----------------------------------------------------------------|
e:|-----------------------------------------------------------------|


  1st Guitar:

e:|-------x-------2----|
b:|-3---x-x------3-2---|
g:|-2/4-x----2--2----4-|
Comments