Pixies - Gigantic Chords & Tabs

 

Gigantic Chords & Tabs

Pixies Chords & Tabs

Version: 5 Type: Bass Tab

Gigantic Bass Tab

   
-------------------------------------------------------------------------------
			     GIGANTIC - The Pixies
-------------------------------------------------------------------------------

Tabbed By : HarleyQuine
e-mail: harleyquine85@yahoo.com

Tuning: E, A, D, G, B, E,

                                 1
|---------------|---------------|---------------|---------------|
|--D-R-U-M------|--D-R-U-M------|---------------|---------------|
|---------------|---------------|-------5-5-7-7-|2-2-2-2-3-3-5-5|
|---------------|---------------|-3-3-3---------|---------------|
[ Tab from: http://www.guitartabs.cc/tabs/p/pixies/gigantic_btab_ver_5.html ]
 2
|---------------|---------------|---------------|---------------|
|---------------|---------------|---------------|---------------|
|--------5-5-7-7|2-2-2-2-3-3-5-5|--------5-5-7-7|2-2-2-2-3-3-5-5|
|3-3-3-3--------|---------------|3-3-3-3--------|---------------|

 3                               4
|---------------|---------------|---------------|---------------|
|---------------|---------------|---------------|---------------|
|--------5-5-7-7|-2-2-2-3-3-5-5-|-------5-5-7-7-|-2-2-2-3-3-5-5-|
|3-3-3-3--------|---------------|-3-3-3---------|---------------|

After this bit it's just riff 4 for the rest of the song. The rhythm on the bass is 
in this song and it varies

throughout the song, listen to the song to get the right timings.