Pixies - Gigantic Chords & Tabs

 

Gigantic Chords & Tabs

Pixies Chords & Tabs

Version: 1 Type: Bass Tab 0 ratings
1 star 2 stars 3 stars 4 stars 5 stars
comments

Gigantic Bass Tab

Pixies: Gigantic 
Bass Tab by: Logan Thrash 
kilroy@ou.edu


#1 / Intro / Verse

:---------------------------:
:---------------------------:
:5---7-7-------3---5-5------:
:---------7-7------------3-3:


#2 / Chorus
[ Tab from: http://www.guitartabs.cc/tabs/p/pixies/gigantic_btab.html ]
:---------------------------------:
:---------------------------------:
:--------5-5-7-7----------3-3-5-5-:
:3-3-3-3----------7-7-7-7---------:



Intro:  Verse (usually 2 times)
Verse   8X
Chorus  4X
Verse   8X
Chorus  4X
Nothing (Guitar Only) 2X
Chorus  4X
Verse   2x
Chorus  to finish

Comments