Pixies - Bone Machine Chords & Tabs

 

Bone Machine Chords & Tabs

Pixies Chords & Tabs

Version: 2 Type: Tab 0 ratings
1 star 2 stars 3 stars 4 stars 5 stars
comments

Bone Machine Tab

   
-------------------------------------------------------------------------------
			     Bone Machine - The Pixies
-------------------------------------------------------------------------------
Tabbed by: Jwrussert
Email: Jwrussert@gmail.com

Tuning:EADGBe
[ Tab from: http://www.guitartabs.cc/tabs/p/pixies/bone_machine_tab_ver_2.html ]
e|------------------------------------|
B|-10-10-10-10--------8-8-8-8---------|
G|-10-10-10-10-7B-5-4-7-7-7-7-5B-3----|
D|------------------------------------|
A|------------------------------------|
E|------------------------------------|

e|------------------------------------|
B|-10-10-10-10--------8-8-8-8---------|
G|-10-10-10-10-7B-5-4-7-7-7-7-5B-3-2--|
D|------------------------------------|
A|------------------------------------|
E|------------------------------------|

He pretty much just alternates between the two riffs.

B=Bend
===============================================================================
Comments