Pivit - One Minute More Chords & Tabs

 

One Minute More Chords & Tabs

Pivit Chords & Tabs

Version: 3 Type: Tab 0 ratings
1 star 2 stars 3 stars 4 stars 5 stars
comments

One Minute More Tab

ONE MINUTE MORE - Pivit


By:Jesse Contreras
kirchart1@yahoo.com
please send corrections and feed back to me

Pivit is a really good band and I reccommend that people check them out.

intro- i think it's a bass intro but it could be guitar i think.
e|---------------------------------------------------------------------------|
B|---------------------------------------------------------------------------|
G|-------------------------------------0-------------------------------------|
D|--2---2---2---3--3---3---3--2---2---0-3------------------------------------|
A|---333-333-333-33-333-333-33-333-333---------------------------------------|
E|---------------------------------------------------------------------------|

1st guitar intro(this is the order in which the chords are played)
e|---------------------------------------------------------------------------|
B|---------------------------------------------------------------------------|
G|---------------------------------------------------------------------------|
D|--2-----5------------------------------------------------------------------|
A|--0--3--3--5---------------------------------------------------------------|
E|-----1-----3---------------------------------------------------------------|

2nd guitar intro(the order in which the chords are played)
e|---------------------------------------------------------------------------|
B|---------------------------------------------------------------------------|
G|--14--17--14--12-----------------------------------------------------------|
D|--x---x---x---x------------------------------------------------------------|
A|--12--15--12--10-----------------------------------------------------------|
E|---------------------------------------------------------------------------|
[ Tab from: http://www.guitartabs.cc/tabs/p/pivit/one_minute_more_tab_ver_3.html ]
1st guitar immediately after intro
e|-----5---5-7-8-----5---5-7-8----5---5-7-8-9-12.......----------------------|
B|-5-5---5-------5-5---5-------55---5----------------------------------------|
G|---------------------------------------------------------------------------|
D|---------------------------------------------------------------------------|
A|---------------------------------------------------------------------------|
E|---------------------------------------------------------------------------|

2nd guitar immediately after intro(order in which chords are played)
e|---------------------------------------------------------------------------|
B|---------------------------------------------------------------------------|
G|---------------------------------------------------------------------------|
D|--2--5-----7---------------------------------------------------------------|
A|--0--3--3--5---------------------------------------------------------------|
E|--------1------------------------------------------------------------------|

verse(order in which chords are played
e|---------------------------------------------------------------------------|
B|---------------------------------------------------------------------------|
G|---------------------------------------------------------------------------|
D|--2-----5------------------------------------------------------------------|
A|--0--3--3--5---------------------------------------------------------------|
E|-----1-----3---------------------------------------------------------------|

i guess you can consider this the chorus 1st guitar(order which chords are played)
e|---------------------------------------------------------------------------|
B|---------------------------------------------------------------------------|
G|---------------------------------------------------------------------------|
D|----5----------------------------------------------------------------------|
A|-3--3--3--5----------------------------------------------------------------|
E|-1-----1--3-this chord is palm muted at times------------------------------|

chorus listen to the songs to hear when you play these 2 notes
e|---------------------------------------------------------------------------|
B|---------------------------------------------------------------------------|
G|---------------------------------------------------------------------------|
D|-3-5-----------------------------------------------------------------------|
A|---------------------------------------------------------------------------|
E|---------------------------------------------------------------------------|

well that's it. ENJOY!
Comments