Pitty - Teto De Vidro Chords & Tabs

 

Teto De Vidro Chords & Tabs

Pitty Chords & Tabs

Version: 1 Type: Bass Tab 0 ratings
1 star 2 stars 3 stars 4 stars 5 stars
comments

Teto De Vidro Bass Tab

Intro e refrão
G|-------------------------------|
D|-------------------------------|
A|4-4-4-3-4-3-4-3-4--0-0-0--2-2-2|
E|-------------------------------|

1ª parte do verso
G|-------------------|
D|-------------------|
A|4-4-------------0-0|
E|-------------------|
[ Tab from: http://www.guitartabs.cc/tabs/p/pitty/teto_de_vidro_btab.html ]
2ª parte do verso
G|------------------------------------------|----------------------------4-------5-|
D|---2~~---4~~--5~~---4-2-4--1---------/6b~~|--2~~---4~~---5~--4-2-4---4---4---5---|
A|-------------------------------3-3-3------|------------------------2-------3-----|
E|------------------------------------------|--------------------------------------|
  E aí, tantas pessoas querendo sentir,     | É bom assim, se movimenta está vivo, 
  Sangue correndo na veia                   | Ouvi milhões de vozes gritando...

Pré refrão
G|----------------------------------|--------------------------------|
D|----------------------------------|--------------------------------|
A|4-4-4-4--2-2-2-2--0-0-0-0--2-2-2-2|4-4-4-4--2-2-2-2----------------|
E|----------------------------------|-----------------2-2-2-2-4-4-4-4|
  Eu quero ver quem é capaz         |de fechar os olhos e descansar em...

G|-----------------|-------------|
D|-----------------|-------------|
A|44-4-4--000000000|44-4-4--00-00|
E|-----------------|-------------|
  paaaaaazzzzzzzzz...............

última parte
G|-----------------------------------|
D|-----------------------------------|
A|44444444----------22222222-00000000|
E|---------00000000------------------|
Comments