Pitchshifter - Whiteout Chords & Tabs

 

Whiteout Chords & Tabs

Pitchshifter Chords & Tabs

Version: 1 Type: Tab 0 ratings
1 star 2 stars 3 stars 4 stars 5 stars
comments

Whiteout Tab

"Whiteout" by Pitch Shifter
from Infotainment? ('96)

tuning - high to low: DAFCGD (down 1 whole step)

intro bass riff
   3x
F |----------------------------------|----------------------------------|
C |*--------------------------------*|----------------------------------|
G |*------------------------5---7---*|----------------------------------|
D |-3p0---0---0-0-0---0---0----------|-3p0---0---0-0-0---0---0-0--------|

[ Tab from: http://www.guitartabs.cc/tabs/p/pitchshifter/whiteout_tab.html ]
d |----------------------------------|----------------------------------|
A |----------------------------------|----------------------------------|
F |----------------------------------|----------------------------------|
C |----------------------------------|----------------------------------|
G |---2-2-2-2-----2-2-2-2-2-2--------|-5---------2---2-2----------------|
D |---0-0-0-0-----0-0-0-0-0-0--------|-3---------0---0-0----------------|


main riffs                     ???
d |------------------|-----------------------------|
A |------------------|-----------------------------|
F |------------------|-----------------------------|
C |------------------|-----------------------------|
G |-2---2-2-2-2-2----|-5-----2---7---9----2---2-2--|
D |-0---0-0-0-0-0----|-3p0---0---5---7----0---0-0--|
Comments