Pitchshifter - Triad Chords & Tabs

 

Triad Chords & Tabs

Pitchshifter Chords & Tabs

Version: 2 Type: Tab 0 ratings
1 star 2 stars 3 stars 4 stars 5 stars
comments

Triad Tab

"Triad" by Pitch Shifter
from Desensitized ('93)

tuning - high to low DAFCGD (down 1 whole step)

these riffs are most of the song: there are a few slight variations,
but they're pretty obvious and easy to figure out.


intro riff    (palm muting)
d |----------------------------------|
A |----------------------------------|
F |----------------------------------|
C |----------------------------------|
G |-2-2---2---2---2---2-8---8---8----|
D |-0-0---0---0---0---0-6---6---6----|
pm  . .   .   .   .   .

[ Tab from: http://www.guitartabs.cc/tabs/p/pitchshifter/triad_tab_ver_2.html ]
main riff
d |----------------------------------|
A |----------------------------------|
F |----------------------------------|
C |---------------7------------------|
G |-2-2---2-8-----5-------5---4---5--|
D |-0-0---0-6---0-----0---3---2---3--|
pm  . .   .     .     .


these are played over the main riff; you can figure out the timing
d |------------|------------|
A |------------|-7/\/\/\----| <-- bend the crap out of this note
F |-7---7------|------------|     to get that strange high noise
C |-5---5------|------------|
G |------------|------------|
D |------------|------------|


bass - main riff
F |----------------------------------|
C |----------------------------------|
G |---------------5------------------|
D |-0-0---0-6---0-----0---3---2---3--|

those strange noises you hear in the background are samples. forget
about playing them.
the song ends with a low D chord over the main bass riff.
Comments