Pitchshifter - Scene This Chords & Tabs

 

Scene This Chords & Tabs

Pitchshifter Chords & Tabs

Version: 1 Type: Tab 0 ratings
1 star 2 stars 3 stars 4 stars 5 stars
comments

Scene This Tab

   
this is one of the many pitchshifter songs i tabbed out hope ya like it.it sounds rite


drop bottom 2 strings 1 whole step 

intro riff 
e |--------------------------------------| 
b |--------------------------------------| 
g |------7-------7--------7-------7------| 
d |-0--------0-0-----0--0-----0-0--------| 
g |--------------------------------------| 
d |--------------------------------------| 


main riff 
e |-------------------------------------------------------------| 
b |-------------------------------------------------------------| 
g |-------------------------------------------------------------| 
d |-------------------------------------------------------------| 
g |-------11-------------11--11---------11-------5-5-5-5---6--/-| 
d |-x-0-12-----x-x-0-12----12-----x-0-12-----x-0-3-3-3-3---4--/-| 

[ Tab from: http://www.guitartabs.cc/tabs/p/pitchshifter/scene_this_tab.html ]
"you can waste your time" 
e |---------------------------------------------| 
b |---------------------------------------------| 
g |---------------------------------------------| 
d |---------------------------------------------| 
g |-7-------------6------------5-5-5-5-4-4-4-4--| 
d |-5-------------4------------3-3-3-3-2-2-2-2--| 

e |----------------------------------| 
b |----------------------------------| 
g |---------4-----4-------4----------| 
d |---------4-----4-------4----------| 
g |---------4-----4-------4-----5----| 
d |-0---0-0-----0-----0-0-----0-3----| 



e |----------------------------------|----------------------------------| 
b |----------------------------------|----------------------------------| 
g |-7-------7-------7----------------|----------------------------------| 
d |-7-------7-------7----------------|----------------------------------| 
g |-7-------7-------7-----5-6--------|-7-------7-------7-----8-9--------| 
d |-----0-0-----0-0-----0-3-4--------|-5---0-0-5---0-0-5---0-6-7--------| 


the interlude/solo thing is just the main riff while messing around with 
a pedal 


ending 
e |----------|----------------------------| 
b |----------|----------------------------| 
g |.---7----.|----------------------------| 
d |.---7----.|----------------------------| 
g |----7-----|-----5-5-5-5-5---6---6------| 
d |--0-------|-0---3-3-3-3-3---4---4-0----|

Comments