Pitchshifter - Psicological Chords & Tabs

 

Psicological Chords & Tabs

Pitchshifter Chords & Tabs

Version: 2 Type: Tab 0 ratings
1 star 2 stars 3 stars 4 stars 5 stars
comments

Psicological Tab

   
Song: PSIcological
Artist: Pitchshifter
Album: Deviant

Tuning: ??

In the song they use loads of Whahwhah and other effects.


-Riff 1-
E---------------------------------------|
B---------------------------------------|
G---------------------------------------|
D---------------------------------------|
A-00-------XXXX------00-------XXXX------|
D-00-13-12-XXXX-10---00-13-12-XXXX-10---|

E---------------------------------------|
B---------------------------------------|
G---------------------------------------|
D---------------------------------------|
A-77777777777777777-888888888-999999999-|
D-55555555555555555-666666666-777777777-|


-Riff 2-
E---------------------------------------------------|
B---------------------------------------------------|
G---------------------------------------------------|
D---------------------------------------------------|
A-0--------0----0----0-----0--------0----0----0-----|
D-0-12-12--0-12-0-13-0-12--0-12-12--0-12-0-13-0-12--|
[ Tab from: http://www.guitartabs.cc/tabs/p/pitchshifter/psicological_tab_ver_2.html ]
E------------------------------------------------------|
B------------------------------------------------------|
G------------------------------------------------------|
D------------------------------------------------------|
A-00--------00--------0-----00--------00-------0----0--|
D-00-12-12--00-12-12--0-12--00-12-12--00-12-12-0-12-0--|


-Riff 3-
E----------------------------------------------------------------|
B----------------------------------------------------------------|
G----------------------------------------------------------------|
D-----------------------------5555555555555555-66666666-77777777-|
A-7-765-6655-7--7-765-6655-7-------------------------------------|
D------7-------------7-------------------------------------------|


E--------------------------------------------------|
B--------------------------------------------------|
G--------------------------------------------------|
D--------------------------------------------------|
A--------------------------------------------------|
D-12-12-11-10-7-10-11-12---12-12-11-10-7-10-11-12--|


E--------------------------------------------------|
B--------------------------------------------------|
G--------------------------------------------------|
D--------------------------------------------------|
A-13-13-13-13-13-13-13-13-14-14-14-14-14-15-15-15--|
D-15-15-15-15-15-15-15-15-16-16-16-16-17-17-17-17--|
Comments