Pitchshifter - Making Plans For Nigel Chords & Tabs

 

Making Plans For Nigel Chords & Tabs

Pitchshifter Chords & Tabs

Version: 1 Type: Tab 0 ratings
1 star 2 stars 3 stars 4 stars 5 stars
comments

Making Plans For Nigel Tab

   
Pitchshifter
Making Plans For Nigel (XTC Cover)
a song im not sure u ever heard but its really awesome

drop bottom 2 strings 1 whole step(this tunning is used on alot of new psi songs,mostll cuz i guess new guitarist and stuff new tunning...or what ever) 

intro riff (with pedal) 
e |-5-5p3----5-5p3----5-5p3----12-14-----| 
b |--------------------------------------| 
g |--------------------------------------| 
d |--------------------------------------| 
g |--------------------------------------| 
d |--------------------------------------| 

[ Tab from: http://www.guitartabs.cc/tabs/p/pitchshifter/making_plans_for_nigel_tab.html ]
main riff 
e |------------------------------------------------------------------| 
b |------------------------------------------------------------------| 
g |------------------------------------------------------------------| 
d |-----------------9-9-9-9-9-9-9-9----------------------------------| 
g |-7-7-7-7-7-7-7-7-9-9-9-9-9-9-9-9-11111111111111111111111111111111-| 
d |-5-5-5-5-5-5-5-5-----------------9-9-9-9-9-9-9-9-9-9-9-9-9-9-9-9--| 

main bass 
g |------------------------------------------------------------------| 
d |------------------------------------------------------------------| 
a |------------------------------------------------------------------| 
d |-5-5-5-5-5-5-5-5/1414141414141414\9-9-9-9-9-9-9-9-9-9-9-9-9-9-9-9-| 

"and when young nigel says he's happy" 
bass 
g |-------------------------------------------------------------------------| 
d |-------------------------------------------------------------------------| 
a |-------------------------------------------------------------------------| 
d |-7-7-7-7-7-7-7-7-5-5-5-5-5-5-5-5-3-3-3-3-3-3-3-3/14-14-14-14-14p12\9-9-9-| 


weird high noise (with pedal) 
e |-5p0-5p2~~~~------------| 
b |------------------------| 
g |------------------------| 
d |------------------------| 
g |------------------------| 
d |------------------------|

Comments