Pitchshifter - Landfill Chords & Tabs

 

Landfill Chords & Tabs

Pitchshifter Chords & Tabs

Version: 2 Type: Tab 0 ratings
1 star 2 stars 3 stars 4 stars 5 stars
comments

Landfill Tab

"Landfill" by Pitch Shifter

PSI has recorded this song two different ways:
1) the original, screwed up way as it is on track 1 of Industrial
2) the revised way as it is on the live version on the Submit re-release
and the extra track at the end of "Routine" on Desensitized


version 1 (old one)
tuning - high to low: DAFCGC (drop D, then down 1 whole step)

main riff
d |----------------------------------|----------------------------------|
A |----------------------------------|----------------------------------|
F |----------------------------------|----------------------------------|
C |----------------------------------|----------------------------------|
G |-0-0-0-0-1---0-0-1---0-0-1-0-1-1--|-0--------------------------------|
C |-0-0-0-0-1---0-0-1---0-0-1-0-1-1--|-0--------------------------------|

d |----------------------------------|
A |----------------------------------|
F |----------------------------------|
C |----------------------------------|
G |-0-0-0-0-1-0-0-1-0-0-1-3-1-0-0-0--|
C |-0-0-0-0-1-0-0-1-0-0-1-3-1-0-0-0--|

version 2 (the newer one)
tuning - high to low: DAFCGD (down 1 whole step)
[ Tab from: http://www.guitartabs.cc/tabs/p/pitchshifter/landfill_tab_ver_2.html ]
bass riff
F |----------------------------------|
C |----------------------------------|
G |---------------------------3------|
D |-0-0---0-1-0-0-1---1---0-1---1----|


main riff
d |----------------------------------|----------------------------------|
A |----------------------------------|----------------------------------|
F |----------------------------------|----------------------------------|
C |----------------------------------|----------------------------------|
G |-2-----2-3-2-2-3-2-3-2-2-3-2-2-3--|-2-----------------------3-2-2-3--|
D |-0-----0-1-0-0-1-0-1-0-0-1-0-0-1--|-0---------------------001-0-0-1--|
pm            . .   .   . .   . .                            ... . . .


lead riff?
d |----------------------------------|-12/\-----------------------------|
A |----------------------------------|----------------------------------|
F |-9----9-10-9-9-10--10--9-10--10---|----------------------------------|
C |----------------------------------|----------------------------------|
G |----------------------------------|----------------------------------|
D |----------------------------------|----------------------------------|
Comments