Pitchshifter - Hidden Agenda Chords & Tabs

 

Hidden Agenda Chords & Tabs

Pitchshifter Chords & Tabs

Version: 1 Type: Tab 0 ratings
1 star 2 stars 3 stars 4 stars 5 stars
comments

Hidden Agenda Tab

   
Pitchshifter
Hidden Agenda


Jim Davies' guitar tuning is pretty wierd, but i tend to play this in drop D.
I ain't included no electroshit, just guitar.

Tuning (top to bottom):
D
A
G
D
G
D


Main Riff:
D|------------------|------------------|
A|------------------|------------------|
G|------------------|------------------|
D|------------------|------------------|
G|---------5-4------|------------------|
d|-4---6------------|-4---4---4--4-4-4-|
                    pm_________________
[ Tab from: http://www.guitartabs.cc/tabs/p/pitchshifter/hidden_agenda_tab.html ]
Rock-out riff:
D|------------------------|
A|------------------------|
G|------------------------|
D|------------------------|
G|-8--6--8--6--8--6--8--8-|
d|-6--4--6--4--6--4--6--6-|

D|------------------------|
A|------------------------|
G|------------------------|
D|------------------------|
G|-9--9--9--9--9--9--9--9-|
d|-11-11-11-11-7--7--7--7-|

I'm sure you can work out the drop D version for yourself.
Sorry I haven't done the widdly bits, but i might do 'em soon.

Stuart Christian

(bastardo_pescado@hotmail.com)

"You cannot hate me like I do, I hate, I know me better"
Comments