Pitchshifter - Gritter Chords & Tabs

 

Gritter Chords & Tabs

Pitchshifter Chords & Tabs

Version: 1 Type: Tab 0 ratings
1 star 2 stars 3 stars 4 stars 5 stars
comments

Gritter Tab

"Gritter" by Pitch Shifter (Submit)

tuning - high to low: DAFCGD (down 1 whole step)

use as much distortion, gain, overdrive, or otherwise noisy, grinding
fuzz effects as you can possibly come up with. this song is HEAVY

main riff
d |-----------------|------------------|
A |-----------------|------------------|
F |-----------------|------------------|
C |-----------------|------------------|
G |-5-4-3-2-5-4-3-2-|-5-4-3-2---2---2--|
D |-3-2-1-0-3-2-1-0-|-3-2-1-0---0---0--|
[ Tab from: http://www.guitartabs.cc/tabs/p/pitchshifter/gritter_tab.html ]
lead part ????
d |-12-------------------------------|
A |----------------------------------|
F |----------------------------------|
C |----------------------------------|
G |----------------------------------|
D |----------------------------------|


drum roll part (?)
d |----------------------------------|
A |----------------------------------|
F |----------------------------------|
C |----------------------------------|
G |-5-2-5-2-5-2-2-2---2---2-5--------|
D |-3-0-3-0-3-0-0-0---0---0-3--------|


cool riff
d |----------------------------------|
A |----------------------------------|
F |----------------------------------|
C |----------------------------------|
G |-5-----5-2-----2---2---2-5--------|
D |-3-----3-0-----0---0---0-3--------|
              "...desperate sounds"
Comments