Pitchshifter - Everything Sucks Chords & Tabs

 

Everything Sucks Chords & Tabs

Pitchshifter Chords & Tabs

Version: 1 Type: Bass Tab 0 ratings
1 star 2 stars 3 stars 4 stars 5 stars
comments

Everything Sucks Bass Tab

Everything Sucks/F**ked [again] by Pitchshifter
Transcribed by Leo Harfield 

One whole step detuning (FCGD), 87 bpm.

Intro and Verse
F|----------------------------------------------------------------|
C|----------------------------------------------------------------|
G|----------------------------------------------------------------|
D|-----7--7--7--3--6--4-------------------------------------------|
[ Tab from: http://www.guitartabs.cc/tabs/p/pitchshifter/everything_sucks_btab.html ]
Chorus
F|----------------------------------------------------------------|
C|----------------------------------------------------------------|
G|----------------------------------------------------------------|
D|-----70-70-70-70-70---333333333-555555555-----------------------|

F|----------------------------------------------------------------|
C|----------------------------------------------------------------|
G|----------------------------------------------------------------|
D|-----70-70-70-70-70---333333333-6666666666----------------------|

Bridge
F|----------------------------------------------------------------|
C|----------------------------------------------------------------|
G|----------------------------------------------------------------|
D|-----4-4-4-/7--4-4-4-/7--4-4-4-\00-0-00-0-----------------------|


If you have any questions, comments or corrections, mail me. Thanks.

Comments