Pitchshifter - Down Chords & Tabs

 

Down Chords & Tabs

Pitchshifter Chords & Tabs

Version: 1 Type: Tab 0 ratings
1 star 2 stars 3 stars 4 stars 5 stars
comments

Down Tab

   
Tuning is D  This is a wicked song which i heard on the Free CD i got              
          G  with kerrang...i'm not even sure wot album its on but its             
          D  definately by pitchshifter.
          G
          B
          E
          
------------------------------------------------------------------------|
------------------------------------------------------------------------|
------------------------------------------------------------------------|
------------------------------------------------------------------------|
------------------------------------------------------------------------|
-4-4----2--2/7--2-------4-4----2--2/7--2-------4-4----2--2/7--2---------|
W/ Wah pedal
REPEAT TWICE

------------------|-----------------|--------------|--------------------|
------------------|-----------------|--------------|--------------------|
------------------|-----------------|--------------|--------------------|
------------------|-----------------|--------------|--------------------|
--------------6--6|----6-6--6--4--6-|-2--6--4--6---|-2--6--4--6--2------|
--4-4----2--4-4--4|----4-4--4--2--4-|-0--4--2--4---|-0--4--2--4--0------|
                   distortion on,
                   Wah pedal off


-------------------------------------------------------------------------
-------------------------------------------------------------------------
----0-0-0-5--4---0-0-0-5--4--0-0-0-5-4-----------------------------------
----0-0-0-5--4---0-0-0-5--4--0-0-0-5-4-----------------------------------
----0-0-0-5--4---0-0-0-5--4--0-0-0-5-4-----------------------------------
----0-0-0-5--4---0-0-0-5--4--0-0-0-5-4----REPEAT (THESE ARE THE VERSES)

PRE CHORUS LEAD:
-------------------------------------------------------------------------
-------------------------------------------------------------------------
-6--6--6-4----4--4--4--2-------------------------------------------------
-------------------------------------------------------------------------
----------------------------6-6-6-7---6-6-6-7---6-6-6-7------------------
----------------------------4-4-4-5---4-4-4-5---4-4-4-5------------------
[ Tab from: http://www.guitartabs.cc/tabs/p/pitchshifter/down_tab.html ]
CHORUS
-------------------|-----------------------------------------------------
---------------0---|------------------------------2-2-0------------------
---------------0---|------------------------------2-2-0------------------
---------------0---|------------------------------2-2-0------------------
----6-2-4-4-4--0---|------------------------------2-2-0------------------
----4-0-2-2-2------|REPEAT 3 TIMES THEN------4-0-------------------------

SOLO
-------------------------------------------------------------------------
-------------------------------------------------------------------------
-------------------------------------------------------------------------
-------------------------------------------------------------------------
--6-6--6-6--6-6--6-6---7-7--7-7--7-7--7-7--------------------------------
--4-4--4-4--4-4--4-4---5-5--5-5--5-5--5-5--------------------------------
PM...  .    .    .     ...  .    .    .

-------------------------------------------------------------------------
-------------------------------------------------------------------------
-------------------------------------------------------------------------
-------------------------------------------------------------------------
--6-6------------7-7-----------------------------------------------------
--4-4--4-3-0h4---5-5--6-5-6-8-9------------------------------------------

-------------------------------------------------------------------------
-------------------------------------------------------------------------
---------6-6--6---7-7--7--7---4-4--4---6-6-6-------4-4-4-----------------
--4-4--4-------------------------------------7-7-7------5-5-5------------
-------------------------------------------------------------------------
-------------------------------------------------------------------------

THEN GO BACK TO VERSE

OUTRO

-------------------------------------------------------------------------
--2-2-2--2-2-3-2-2-2--2-2-3--2-2-2-2-0-----------------------------------
-------------------------------------------------------------------------
-------------------------------------------------------------------------
-------------------------------------------------------------------------
-------------------------------------------------------------------------

My email address is oskysum@hotmail.com
this took me a long time, the only reason why i submitted it was because 
there were basically no tabs for pitchshifter so i wanted to increase it
but i oubt anyone is goin to look at this tab!







Comments