Pitchshifter - Dead Battery Chords & Tabs

 

Dead Battery Chords & Tabs

Pitchshifter Chords & Tabs

Version: 1 Type: Tab 0 ratings
1 star 2 stars 3 stars 4 stars 5 stars
comments

Dead Battery Tab

   
FTH80:EBGDAE ; Generated by Fast Tab, do not erase
====================
From            : jacob ross
Artist          : Dead Battery by Pitchshifter
Bass Performance: 
Comments:       : A brilliant song from the new album, deviant, 
and really easy to play. Drop D tuning: D, 
A, D, G, B, E.
---
Strings: E,A,D,G,B,E
====================

Intro and verse riff (after the strange noises) Note: this song is drop D tuning
E------------------------------
B------------------------------
G------------------------------
D--0-12-11--X--X--X--X---------
A-----------X--X--X--X-11-11-12
D-----------X--X--X--X---------
>

Part two of the verse, a little section before the chorus. higher guitar part:         
(find out the rhythm yourself by listening)                     

E--0-0-0-0-----0-0-0-0-3-3-3--
B----------1-1----------------
G-----------------------------
[ Tab from: http://www.guitartabs.cc/tabs/p/pitchshifter/dead_battery_tab.html ]
There is also a lower guitar part underneath that, playing power chords.

Again, listen to the CD for the correct rhythm, although the chords change
in time with the higher guitar part:

D--7--7--7--3--3--3--7--7--7--/10-10-10------
A--7--7--7--3--3--3--7--7--7--/10-10-10------
D--7--7--7--3--3--3--7--7--7--/10-10-10------

Then the chorus, again, power chords:


D-0--3--9--0--3--9---- etc.
A-0--3--9--0--3--9----
D-0--3--9--0--3--9----

there is also a bridge section:

 (slowly decrease pitch with tremolo arm)

D--0-\\\\\----------------------------------2-3-3-2-3-
A-----------------------------------------------------
D-----------------------------------------------------

Do that 4 times, then the 'solo':
(you'll have to do without the odd sounds for this, 
unless you have a pod or something)


E--------------------3-4-3-3-4--
B--3-3-3-3-3-3-4-4-4------------
G--2-2-2-2-2-2-3-3-3------------

Do this 4 times. the bass underneath:

D--------- etc.
A---------

D-0-6-0-6-
Comments