Pitchshifter - Dead Battery Chords & Tabs

 

Dead Battery Chords & Tabs

Pitchshifter Chords & Tabs

Version: 2 Type: Bass Tab 0 ratings
1 star 2 stars 3 stars 4 stars 5 stars
comments

Dead Battery Bass Tab

Dead Battery by Pitchshifter
Tabbed by Chuck Browning (addbass311@aol.com)
E-mail me with any tab requests for any type of music besides country.

Pitchshifter tunes down one whole step


Intro/Verse Riff

F ------------------------
C ------------------------
G 0--7-6-X-X-X-X-X-5-5-7-7 
D ------------------------

Pre-Chorus Riff
[ Tab from: http://www.guitartabs.cc/tabs/p/pitchshifter/dead_battery_btab_ver_2.html ]
F ---------------------------------------------------------
C ---------------------------------------------------------
G --------------5--5-5--5-5-5---------------5-5-5-5-7-7-7-7
D 7--7-7--7-7-7---------------7--7-7--7-7-7----------------


Chorus Riff

F -----------------------
C -----------------------
G -----------------------
D 0--0-0--0-2--2-2--3-3-2


Breakdown Riff

F ----------------------------------------
C ----------------------------------------
G ---7-----7------7------8-----8-------8--
D 0-----0----0-0----0-0-----0-----0-0----0
Comments