Pitchshifter - Cathode Chords & Tabs

 

Cathode Chords & Tabs

Pitchshifter Chords & Tabs

Version: 1 Type: Tab 0 ratings
1 star 2 stars 3 stars 4 stars 5 stars
comments

Cathode Tab

"Cathode" by Pitch Shifter (Desensitized)

tuning - high to low: DAFCGD (down 1 whole step)

intro - some rabid sample or something... i just skip it. you might be able
to get that noise with some thick chorus and a wah pedal... ?

d ||-----------------|------|-----------------|
A ||-----------------|------|-----------------|
F ||-----------------|------|-----------------|
C ||-----------------|------|-----------------|
G ||-2-2-8-2-2-8-2-8-|------|-2-2-8---2-5-2-5-|
D ||-0-0-6-0-0-6-0-6-|------|-0-0-6---0-3-0-3-|
.  "we can give you all"     "keep watching...keep watching"
[ Tab from: http://www.guitartabs.cc/tabs/p/pitchshifter/cathode_tab.html ]
d |---------------------------------------------|
A |---------------------------------------------|
F |---------------------------------------------|
C |-9-------------------------------------------|
G |-7-----------8---------2-2-5-2-2-5-2-5-------|
D |-----------0-6---------0-0-3-0-0-3-0-3-------|
                          "don't blink!  2 seconds!"


image...light, lies, etc
d |----------------------|------------------------|
A |----------------------|------------------------|
F |----------------------|------------------------|
C |-9--------------------|------------------------|
G |-7-----------8--------|------------------------|
D |-----------0-6--------|------------------------|



after the "interlude" ...
d |-----------------------|
A |-----------------------|
F |-----------------------|
C |-----------------------|
G |-2-2-2-2-2-2-2-2-------|
D |-0-0-0-0-0-0-0-0--etc--|

then drums play over a bass riff that sounds something like this:
F |-----------------------------------|
C |-----------------------------------|
G |-----------------------------------|
D |-0-0-12-0-0-6-0-6-0-0-3-0-0-3-0-3--|


for that high noise, bend the 2nd string (A string) like mad on fret 17 over and over



Comments