Pitchshifter - As Seen On Tv Chords & Tabs

 

As Seen On Tv Chords & Tabs

Pitchshifter Chords & Tabs

Version: 1 Type: Tab 0 ratings
1 star 2 stars 3 stars 4 stars 5 stars
comments

As Seen On Tv Tab

   
Title: As Seen On TV
Album: Deviant
Transcribed by: James Ball
Email: james_wmkt@hotmail.com

I couldn't put the timing onto this so you'll have to listen to the song and work it out yourself.

Tuning:      Key:
E            b= bend
b 
G 
D 
G 
D

Fig 1:
--------------------------------
--------------------------------
-5-7-7-5-7-7-5-7b-5-5-5-5-7-7-7-
--------------------------------
--------------------------------
--------------------------------
[ Tab from: http://www.guitartabs.cc/tabs/p/pitchshifter/as_seen_on_tv_tab.html ]
 Fig 2:                                                        
-----------------------------------
-----------------------------------
-----------------------------------
-----------------------------------
-8----8-8--8-8--8-8----8-8--8-8--8-
-6----6-6--6-6--6-6----6-6--6-6--6-
                                                                              
 Fig 3:                                                          
---------------------------------------------------------
---------------------------------------------------------
---------------------------------------------------------
---------------------------------------------------------
-9-9--9-9--9-9--5-5--5-5--5--9-9--9-9--9-9--12-12--12-12-
-7-7--7-7--7-7--3-3--3-3--3--7-7--7-7--7-7--10-10--10-10-
                                                                              
 Fig 4:
-----------------------------------------------------------------------------
-----------------------------------------------------------------------------
-----------------------------------------------------------------------------
-----------------------------------------------------------------------------
-2--2--2-2-2-2-2-5-5-5--2--2--2-2-2-2-2-5-5-5--2--2--2-2-2-2-2-5-5-5-7--7--7-
-0--0--0-0-0-0-0-3-3-3--0--0--0-0-0-0-0-3-3-3--0--0--0-0-0-0-0-3-3-3-5--5--5-
                                                                              

--------------
--------------
--------------
--------------
7-7-7-7-8-8-8-
5-5-5-5-6-6-6-

 Fig 5:                                                      
------------------------------------------------------------------------------
------------------------------------------------------------------------------
-9-9-9-9-9-9-9-9-10-10-10-10-10-10-10-10-9-9-9-9-9-9-9-9----------------------
---------------------------------------------------------10-10-10-10-10-10-10-
------------------------------------------------------------------------------
------------------------------------------------------------------------------
                                                                              

---
---
---
10-
---
---
                                                                              
Song Structure =
Intro:
Fig 1 x8
Verses 1 and 2:
Fig 2 x1
Fig 1 x2
Fig 2 x1
Fig 1 x2
Chorus 1 and 2:
Fig 3 x1
Fig 1 x2
Fig 3 x1
Fig 4 x1
Last Verse:
Fig 5 x2
Fig 1 x4
Last Chorus:
Fig 4 x2

  Please send any corrections to james_wmkt@hotmail.com


Comments