Pist - Time To Move On Chords & Tabs

 

Time To Move On Chords & Tabs

Pist Chords & Tabs

Version: 1 Type: Bass Tab 0 ratings
1 star 2 stars 3 stars 4 stars 5 stars
comments

Time To Move On Bass Tab

Time to move on-Song
Pist-Artist/Band
Tab By: Mike M

standerd Tuning 

Intro

||---------
||---------
||3--------
||--3-1-5--
(x4)

Verse

||------------------------------
||------------------------------
||-333333-----------------------
||--------333333-111111-555555--
(x4)

Chorous

||----------
||----------
||---5-7-5--
||-5--------
(x4)

Verse
[ Tab from: http://www.guitartabs.cc/tabs/p/pist/time_to_move_on_btab.html ]
||------------------------------
||------------------------------
||-333333-----------------------
||--------333333-111111-555555--
(x4)

Bridge

||-------------------------------------------
||-------------------------------------------
||------7777------6666------5555-6666-7-6----
||-7777------6666------5555------------------
(x2)

Chorous

||----------
||----------
||---5-7-5--
||-5--------
(x16)

Verse

||------------------------------
||------------------------------
||-333333-----------------------
||--------333333-111111-555555--
(x4)


Thats it! enjoy

Check out pist website www.angelfire.com/punk3/pist
Comments