Pist - Prayer Of Life Chords & Tabs

 

Prayer Of Life Chords & Tabs

Pist Chords & Tabs

Version: 1 Type: Bass Tab 0 ratings
1 star 2 stars 3 stars 4 stars 5 stars
comments

Prayer Of Life Bass Tab

Pist - Prayer of Life
Tabbed By: mike m
EMail: rckin213@mindspring.com


Standerd Tuning
~=let note ring

Intro/1st verse

||-----------------------------------||
||-----------------------------------||
||-----------------------------------||(x4
||-77777-55555-99999-1212121212------||

2nd Verse

||-----------------------------------||
||-----------------------------------||
||-----------------------------------||(x2)
||-5-5-5-6-6-6-8-8-8-6-6-6-----------||

Chorous

||-----------------------------------||
||-----------------------------------||
||-----------------------------------||(x2)
||-5~-6~-4~-5~-----------------------||
[ Tab from: http://www.guitartabs.cc/tabs/p/pist/prayer_of_life_btab.html ]
3rd Verse
||-----------------------------------||
||-----------------------------------||
||-----------------------------------||(x2)
||-5-5-5-6-6-6-8-8-8-6-6-6-----------||


Solo:

||----------------------------------------------------------------------||
||----------------------------------------------------------------------||
||----------------------------------------------------------------------||
||-444-3-2-33-2-1-2-444-3-2-33-2-1-2-555-4-3-44-3-2-3-444-3-2-33-2-1-2--||

Chorous
||-----------------------------------||
||-----------------------------------||
||-----------------------------------||(x2)
||-5~-6~-4~-5~-----------------------||||-----------------------------------||
||-----------------------------------||
||-----------------------------------||(x4)
||-55-6-4-3-5-4-6--------------------||
Comments