Pissing Razors - Survival Of Time Chords & Tabs

 

Survival Of Time Chords & Tabs

Pissing Razors Chords & Tabs

Version: 1 Type: Bass Tab

Survival Of Time Bass Tab

   
Band- Pissing Razors
Song- Survival Of Time

Low to high (F,C,G,C)



Riff A
F|---------------------------------------------|----|
C|---------------------------------------------|----|
G|---------------------------------------------|----|
C|-0-0-0--0-6-6--0-3-3--0-0-0--0-7-7--0-555555-|-5\-|


Riff B
F|-----------------------------------------------------------------|
C|-----------------------------------------------------------------|
G|---2-2---------4-4-----------------2-2---------4-4---------------|
C|-0-----3-3-0-0-----2-2-3-3-4-4-5-0-----3-3-0-0-----5-5-4-4-3-3-2-|

[ Tab from: http://www.guitartabs.cc/tabs/p/pissing_razors/survival_of_time_btab.html ]
Riff C
F|---------------------|
C|---------------------|
G|---------------------|
C|-0-0-0---0h3-/-6-\-3-|


Riff D
F|---------------------------------------|
C|---------------------------------------|
G|---------------------------------------|
C|-0-0-0---0h3-/-6-\-3--0--0--0--0--0--0-|


Riff E
F|--------------------|
C|--------------------|
G|--------------------|
C|-0-0-0---0--3--6--3-|
       


Riff A (X4)
Riff B (X8)
Riff A (X4)
Riff C (X4)
Riff B (X4)
Riff A (X4)
Riff C (X8)
Riff D (X4) (Under Solo)
Riff C (X3)
Riff E