Pippin - Miss Behind Chords & Tabs

 

Miss Behind Chords & Tabs

Pippin Chords & Tabs

Version: 1 Type: Tab 0 ratings
1 star 2 stars 3 stars 4 stars 5 stars
comments

Miss Behind Tab

   
i dont know if this worked before but here it is again



---------------------
---------0--1--0-----
-------2-------------
-----2---------------
---0-----------------
---------------------


---------------------
-----3--3------------
--2--------2--2------
---------------------
---------------------
---------------------


---------------------
---3---5--6--5--3----
---------------------
---------------------
---------------------
---------------------
[ Tab from: http://www.guitartabs.cc/tabs/p/pippin/miss_behind_tab.html ]
---------------------
---------------------
----2--7--7--9-10--9-
---------------------
---------------------
---------------------


---------------------
---------------------
--10--12--12--7-7-12- 
---------------------
---------------------
---------------------



---------------------
---------------------
--15--16--15--12---7-
---------------------
---------------------
---------------------





well thats all hope u injoyed it

peace love ya all 

-C Rizzle-
Comments