Pipedown - Losing The Sum Chords & Tabs

 

Losing The Sum Chords & Tabs

Pipedown Chords & Tabs

Version: 1 Type: Tab 0 ratings
1 star 2 stars 3 stars 4 stars 5 stars
comments

Losing The Sum Tab

   
Artist: Pipedown
Song: Losing The Sum
Album: Mental Weaponry

Well I tabbed this song 'cause it's awesome, really
I never saw it on the net so...Here you are, have fun and... don't give up on it!

p = Pull off
h = Harmonics
. = Palmmute
\ = Slide
x = Just put your finger on the string but don't push it down

Guitar 1 -- Verse 1

e|--------------------------------------------------|
B|--------------------------------------------------|
G|--------------------------------------------7-7---|
D|-----7---8p7------7---8p7------7---8p7--7-7-7-7---| 
A|-7-7---7-----77-7---7-----77-7---7------7-7-5-5---|
E|----------------------------------------5-5-------|

Guitar 2 -- Verse 1

e|--------------------------------------------------|
B|--------------------------------------------------|
G|--------------------------------------------7-7---|
D|-2-22--------2-22---------2-22----------7-7-7-7---|
A|-2-22--------2-22---------2-22----------7-7-5-5---|
E|-0-00--------0-00---------0-00----------5-5-------|

e|--------------------------------------------------|
B|--------------------------------------------------|
G|--------------------------------------------------|
D|-2-22--------2-22---------2-22----------7-7-7-7---|
A|-2-22--------2-22---------2-22----------7-7-7-7---|
E|-0-00--------0-00---------0-00----------5-5-5-5---|

Pre-chorus -- First guitar 1 and 2 play palm mute, then guitar 1 plays harmonics
[ Tab from: http://www.guitartabs.cc/tabs/p/pipedown/losing_the_sum_tab.html ]
e|------------------------------------------|
B|------------------------------------------|
G|---7-9\7-------7-9---------------7-9--5-7-|
D|-5-7-9\7---5-5-7-9-8-9-5-5-------7-9--5-7-|
A|-5-5-7\5---5---5-7-8-9-5---5-----5-7--3-5-|
E|-3---------3-------6-7-3-----5-7----------|
   . . . .   . h           h h h h

Chorus -- x 2

e|-----------|--------|
B|-----------|--------|
G|-12-9------|-9------|
D|-12-9-7-10-|-9-7-10-|
A|-10-7-7-10-|-7-7-10-|
E|------5-8--|---5-8--|

Second time, during the second part, guitar 1 does

e|----------------|
B|----------------|
G|---9-11-12-14---|
D|---x--x--x--x---|
A|---7--9-10-12---|
E|----------------|

Verse 2 -- x 2

e|------------------------------------------||-----------|
B|------------------------------------------||-----------|
G|------------------------------------------||-----7-(7)-|
D|-2-22--(5)------2-22---------2-22---------||-7-7-7-(7)-|
A|-2-22-----------2-22---------2-22---------||-7-7-5-(5)-|
E|-0-00-----------0-00---------0-00---------||-5-5-------|
         (h)  (only second time)                     (Only played the first time)  

Pre-chorus

Chorus

Bridge -- x3

e|----3-|---|---------|-----|
B|----3-|---|---------|-----|
G|----4-|---|---------|-----|
D|-2--5-|-2-|-2-5-7-8-|-5-7-|
A|-2--5-|-2-|-2-5-7-8-|-5-7-|
E|-0--3-|-0-|-0-3-5-6-|-3-5-|
                        . .

Post-Bridge -- x 3 Then second part

e|-------------|-----|
B|-------------|-----|
G|---10/12-7\5-|-3-5-|
D|-8-10/12-7\5-|-3-5-|
A|-8-8-/10-5\3-|-1-3-|
E|-6-----------|-----|

Chorus

Ending

e|----------------------|  |---|
B|----------------------|  |---|
G|-9---7-9---7-9---7-10-|  |-9-|
D|-9-7-7-9-7-7-9-7-7-10-|  |-9-|
A|-7-7-5-7-7-5-7-7-5-8--|  |-7-|
E|---5-----5-----5------|x2|---|

hey, that's how it's done!

Any questions? 

the_idiots_r_taking_over@hotmail.com

I'll answer right away!

Peace Out!
Comments