Pipedown - Control Chords & Tabs

 

Control Chords & Tabs

Pipedown Chords & Tabs

Version: 1 Type: Bass Tab 0 ratings
1 star 2 stars 3 stars 4 stars 5 stars
comments

Control Bass Tab

   
X2                                         I N T R O / V E R S E   1
|------------------------------------------------------------------|
|------------------------------------------------------------------|
|-------------------------------------------5----------------------|
|7-7-7-7-7-7-7-7-7-7-7-7-7-7-7-7-3-3-3-3-5-5-5-5-557-557-----------|


                                                       V E R S E   2
|------------------------------------------------------------------|
|------------------------------------------------------------------|
|-----------5-------------------------------5----------------------|
|7-7-7-7-7-7-5-5-557-557-7-7-7-7-3-3-3-3-5-5-5-5-557-557-----------|


VERSE 1 X2
[ Tab from: http://www.guitartabs.cc/tabs/p/pipedown/control_btab.html ]
X2                                                              C H O R U S   1
|---------------------------------------------------------------------------
|---------------------------------------------------------------------------
|-----------5--------------------10-10-9-9----------------------------------
|7-7-7-7-7-7-5-5-557-557-7-7-7-7-----------11-11-10-10-557-557-7-7-7-7------


                            C H O R U S   2
|-----------------------------------------|
|-----------------------------------------|
|10-10-12---------------------------------|
|--------12-557-557-7-7-7-7-(X2)----------|


|-----------------------------------------------------------------------|
|-----------------------------------------------------------------------|
|10-10-12------10------------------------10-10-8-8----------------------|
|--------12--12--10-10-10-10-10-10-10-10-----------11-11-10-10-557------|


VERSE 1 X2

CHORUS 1 X2

CHORUS 2

X10                         B R E A K D O W N
|-------------------------------------------|
|-------------------------------------------|
|--------5-5-5-5----------------------------|
|7-7-7-7---------3-3-3-3-6-6-6-6------------|


X8                  O U T R O
|---------------------------|
|---------------------------|
|--------5-5----------------|
|7-7-7-7-----5-5------------|
Comments