Pipedown - Carol Of The Bells Chords & Tabs

 

Carol Of The Bells Chords & Tabs

Pipedown Chords & Tabs

Version: 1 Type: Tab 0 ratings
1 star 2 stars 3 stars 4 stars 5 stars
comments

Carol Of The Bells Tab

Pipedown is a political punk rock band on A-F Records.  Their website is
www.pipedown.net (I believe).  I got this from another tab site, so I put
the author's email address at the bottom.  It's a good tab, so I thought it
should be in the archives here.

intro part 1
|------------------------------------|
|------------------------------------|
|-12-11 12 9-------------------------|
|-------------9-896--5-453-----------|
|------------------------------------|
|------------------------------------|

intro part 2 
|-------------|
|-------------|
|-------------|
|-7-674-4~~~--|
|-------------|
|-------------| x16

intro part 3
|------------------------------------------------------------|
|------------------------------------------------------------|
|-----------------------------9-99-77------------------------|
|-9-896--9-896--9-896--9-896----------9-99-77-6-66-77-4-44---|
|------------------------------------------------------------|
|------------------------------------------------------------|

intro part 4 
|----------------------|
|----------------------|
|----------------------|
|-00-33-55-66-76-------|
|----------------------|
|----------------------| x2

intro part 2 x4 
[ Tab from: http://www.guitartabs.cc/tabs/p/pipedown/carol_of_the_bells_tab.html ]

|---------------|
|---------------|
|---------------|
|-55-45-22------|
|---------------|
|---------------| x12

|---------------|
|---------------|
|---------------|
|-5-452---------|
|---------------| 
|---------------|  x4

|------------------------------------------------|
|------------------------------------------------|
|-9999-77----------------------------------------|
|---------9999-77-6666-77-4444-44----------------|
|------------------------------------------------|
|------------------------------------------------|

|------------------------------------------------|
|------------------------------------------------|
|-035-676-035-676-035-035-035-035-0>-------------|
|------------------------------------------------|
|------------------------------------------------|
|------------------------------------------------|

|-------------------------------------------------|
|-------------------------------------------------|
|-------------------------------------------------|
|-00-99-77-55-00-55-79>--00-99-77-55-00-55-32>----|
|-------------------------------------------------|
|-------------------------------------------------|  x2

intro part 2 x8

By antixwar@hotmail.com
Comments