Piotr Ilyich Tchaikovsky - Swan Lake Chords & Tabs

 

Swan Lake Chords & Tabs

Piotr Ilyich Tchaikovsky Chords & Tabs

Version: 3 Type: Tab 0 ratings
1 star 2 stars 3 stars 4 stars 5 stars
comments

Swan Lake Tab

   
PART A:

E|0-----------------|0-----------------|0-----------------|
B|------------0-1-3-|-------------1----|-------------1----|
G|--------2-2-------|--------2---------|--------2---------|
D|--------2-3-------|------------------|------------------|
A|0-------0-0-------|0-----------------|------------------|
E|------------------|--------0---------|--------0---------|

E|0-----------------|------------------|------------------|
B|------------------|---1---------1----|----------3-3-1-0-|
G|------------------|------2---------2-|----------2-------|
D|------------------|2---------3-------|----------3-------|
A|------------------|------------------|------------------|
E|------------------|------------------|------------------|

E|0-----------------|0-----------------|0-----------------|
B|------------0-1-3-|-------------1----|-------------1----|
G|--------2-2-------|--------2---------|--------2---------|
D|--------2-3-------|------------------|------------------|
A|0-------0-0-------|0-----------------|------------------|
E|------------------|--------0---------|--------0---------|

E|0-----------------|------------------|------------------|
B|------------------|---1---------1----|----------1---1---|
G|------------------|------2---------2-|----------2---2---|
D|------------------|2---------3-------|----------3---2---|
A|------------------|------------------|------------------|
E|------------------|------------------|------------------|
[ Tab from: http://www.guitartabs.cc/tabs/p/piotr_ilyich_tchaikovsky/swan_lake_tab_ver_3.html ]
PART B:

E|------------------|------------------|0-1-3-----1---0---|
B|------------------|0------1------3---|------0---------0-|
G|--------------2---|--0------0------0-|--------0---------|
D|------------------|3-------------3---|------------------|
A|------------------|------------------|----5-------------|
E|------------------|------------------|------------------|

E|1-3-5-----3---1---|3-5-7-----5---0---|------------------|
B|------3---------0-|------5-----------|--1-----0---------|
G|--------5---------|--------5---------|--------------2---|
D|------------------|------------------|------------------|
A|----0-------------|----5---------0---|------------------|
E|------------------|------------------|------------------|

E|------------------|0-1-3-----1---0---|1-3-5-----3---1---|
B|0------1------3---|------0---------0-|------3---------0-|
G|--0------0------0-|--------0---------|--------5---------|
D|3-------------3---|------------------|------------------|
A|------------------|----5-------------|----0-------------|
E|------------------|------------------|------------------|

E|3-5-7-----5-3-----|5-7-9-----7-------|9-----------------|
B|------5-------0---|------7-----------|------------------|
G|--------5---------|--------7---------|------------------|
D|------------------|------------------|------------------|
A|----5-------------|----7-------------|------------------|
E|------------------|------------------|------------------|

   - Nir A.
Comments