Piotr Ilyich Tchaikovsky - Swan Lake Chords & Tabs

 

Swan Lake Chords & Tabs

Piotr Ilyich Tchaikovsky Chords & Tabs

Version: 2 Type: Tab 0 ratings
1 star 2 stars 3 stars 4 stars 5 stars
comments

Swan Lake Tab

-------------------------------------------------------------------------------
			     SWAN LAKE - Tchalovsky
-------------------------------------------------------------------------------
Tuning: Standard

Intro: 2x

e|---0-------------------0-------0-------0-----------------------------------|
B|------------0---1---3-------1-------1--------------1------------1----------|
G|-------2--------------------------------------2--------2-----------2-------|
D|-----------------------------------------------------------3---------------|
A|---------------------------------------------------------------------------|
E|---------------------------------------------------------------------------|


[ Tab from: http://www.guitartabs.cc/tabs/p/piotr_ilyich_tchaikovsky/swan_lake_tab_ver_2.html ]
e|-------------------0---1---3---1---0---1---3---5---3---1---3---5---7-------|
B|-------0---1---3-----------------------------------------------------------|
G|---2-----------------------------------------------------------------------|
D|---------------------------------------------------------------------------|
A|---------------------------------------------------------------------------|
E|---------------------------------------------------------------------------|

e|-------------------0---1---3---1---0---1---3---5---3---1---3---5---6-------|
B|-------0---1---3-----------------------------------------------------------|
G|---2-----------------------------------------------------------------------|
D|---------------------------------------------------------------------------|
A|---------------------------------------------------------------------------|
E|---------------------------------------------------------------------------|

e|---1-------1---6-------7---------------------------------------------------|
B|-------3-------------------------------------------------------------------|
G|---------------------------------------------------------------------------|
D|---------------------------------------------------------------------------|
A|---------------------------------------------------------------------------|
E|---------------------------------------------------------------------------|

Repeat Intro.
Comments