Piotr Ilyich Tchaikovsky - 1812 Overture Chords & Tabs

 

1812 Overture Chords & Tabs

Piotr Ilyich Tchaikovsky Chords & Tabs

Version: 1 Type: Bass Tab 0 ratings
1 star 2 stars 3 stars 4 stars 5 stars
comments

1812 Overture Bass Tab

This is the main part of the 1812 overture for Bass.

G|----------------------|--------|------------------|
D|------------7---------|-7------|--------7---------|
A|--8----8-10---10-8-10-|---8--8-|---8-10---10-8-10-|
E|-----8----------------|--------|-8----------------|
[ Tab from: http://www.guitartabs.cc/tabs/p/piotr_ilyich_tchaikovsky/1812_overture_btab.html ]
G|---------|---------------|-----------|
D|-7-------|---5-7-5-------|-5-------5-|
A|----8--8-|-5-------5---5-|---5---5---|
E|---------|-----------6---|-----6-----|

G|---------------|------------|
D|---3 5 3-------|--3-------3-|
A|-3-------3---3-|----3---3---|       
E|-----------5---|------5-----|
Comments