Pino Daniele - Sara Chords & Tabs

 

Sara Chords & Tabs

Pino Daniele Chords & Tabs

Version: 1 Type: Tab 0 ratings
1 star 2 stars 3 stars 4 stars 5 stars
comments

Sara Tab

   
e 0-1-2-1-0-7-7-7-8-7-5-12-14-15-14-12-10-10-10-8-7-5-0 
b------------------------------------------------------
g------------------------------------------------------
d------------------------------------------------------
a------------------------------------------------------
e------------------------------------------------------

[ Tab from: http://www.guitartabs.cc/tabs/p/pino_daniele/sara_tab.html ]
e0-1-2-1-0-7-7-7-8-7-5-3-2-0-------------------------
b-----------------------------3-1-0------------------
g-----------------------------------2-0--------------
d---------------------------------------4-2-0--------
a----------------------------------------------------
e----------------------------------------------------


if u have any problems email me at peppefazzolari@aol.com
i hoped i helped
Comments