Pink Noise - Buzz Of A Flame Sawtooth Chords & Tabs

 

Buzz Of A Flame Sawtooth Chords & Tabs

Pink Noise Chords & Tabs

Version: 2 Type: Tab 0 ratings
1 star 2 stars 3 stars 4 stars 5 stars
comments

Buzz Of A Flame Sawtooth Tab

   
Artist: Pink Noise
Song Title: Buzz of a Flame/Sawtooth
Album: The Boom Boom EP
Tuning: Standard (EADGBE)
Transcribed by: Chris White (shaggymoods70@yahoo.com)

One day I was bored and I went through the entire Pink Noise album and
figured out all the songs, so look out for the rest of the songs.

RIFF ONE:

      A            C#        F#m    B       G#
E|-5-5-5-5-5-5----9--9--9---2-2-2---7-7-7---4-------->
B|-5-5-5-5-5-5-R--9--9--9-R-2-2-2-R-7-7-7-R-4-------->
G|-6-6-6-6-6-6-E--8--8--8-E-2-2-2-E-8-8-8-E-5---let-->
D|-7-7-7-7-7-7-S-11-11-11-S-4-4-4-S-9-9-9-S-6--ring-->
A|-7-7-7-7-7-7-T-11-11-11-T-4-4-4-T-9-9-9-T-6-------->
E|-5-5-5-7-7-7----9--9--9---2-2-2---7-7-7---4-------->

RIFF TWO:

    A5          C#5     F#5    B5    G#5
E|------------------------------------|
B|------------------------------------|
G|------------------------------------|
D|-7-7-7-7-7-7-11-11-11-4-4-4-9-9-9-6-|
A|-7-7-7-7-7-7-11-11-11-4-4-4-9-9-9-6-|
E|-5-5-5-5-5-5--9--9--9-2-2-2-7-7-7-4-|
                                    *
*I don't know how many times to hit this "chord."

RIFF THREE:

   A5              E5 F#5 G#5
E|------------------------|
B|------------------------|
G|------------------------|
D|-7-7-7-7-7\---x-x-2-4-6-|
A|-7-7-7-7-7\---x-x-2-4-6-|
E|-5-5-5-5-5\---x-x-0-2-4-|
                        *

*I don't know how many times to hit this "chord."

RIFF FOUR:

E|--------------------------------------------|
B|--------------------------------------------|
G|--------------------------------------------|
D|-7----6---7---6--4/6--6--5-6--5-6--5--6-5-6-|
A|--------------------------------------------|
E|--------------------------------------------|
[ Tab from: http://www.guitartabs.cc/tabs/p/pink_noise/buzz_of_a_flame_sawtooth_tab_ver_2.html ]
RIFF FIVE:

E|--------------------------------------|
B|-10/14-12-14b-12--9-8-9-8-9-8---------|
G|--------------------------------------|
D|--------------------------------------|
A|--------------------------------------|
E|--------------------------------------|

It's something like that.

RIFF SIX:

E|-------------------------------------------------|
B|-------------------------------------------------|
G|-------------------------------------------------|
D|-7-7-7-6-6-6-4-4-4-4-4-4-6-6-6-4-4-4-2-2-2-2-2-2-|
A|-7-7-7-6-6-6-4-4-4-4-4-4-6-6-6-4-4-4-2-2-2-2-2-2-|
E|-5-5-5-4-4-4-2-2-2-2-2-2-4-4-4-2-2-2-0-0-0-0-0-0-|

Second time, play through palm-muted.

RIFF SEVEN:

E|----------------------------------11-12--11--12--11-|
B|----------------------------12-14-------------------|
G|-------------------11-13-14-------------------------|
D|----------11-13-14----------------------------------|
A|-11-12-14-------------------------------------------|
E|----------------------------------------------------|

RIFF EIGHT (played over RIFF SEVEN):

E|------------------------------------|
B|-----------------------4-5--4--5--4-|
G|-------------------4-6--------------|
D|-------------4-6-7------------------|
A|-------4-6-7------------------------|
E|-4-5-7------------------------------|

Variation in RIFF EIGHT:

E|--------------------|
B|-5/9--7--9--7--5/9~-|
G|--------------------|
D|--------------------|
A|--------------------|
E|--------------------|

RIFF NINE:

E|--------|
B|--------|
G|-----13-|
D|-2----x-|
A|-2---11-|
E|-0------|


Sorry I didn't transcribe the solo, I didn't feel like it.  You should
hopefully be able to figure out where each riff is played and how many
times, if not, i pity you.


Any questions or comments---------Chris White(shaggymoods70@yahoo.com)
Comments