Pink Floyd - Young Lust Chords & Tabs

 

Young Lust Chords & Tabs

Pink Floyd Chords & Tabs

Version: 2 Type: Tab 0 ratings
1 star 2 stars 3 stars 4 stars 5 stars
comments

Young Lust Tab

Young Lust
Pink Floyd
The Wall

Tabbed By: Matt Lenda

|-----------------------------------------|-----------------------------------------|
|-----------------------------------------|-----------------------------------------|
|-----------------------------------------|-----------------------------------------|
|-----------------5b(7)-----7-7---7b(9)---|-5---------------------------------------|
|-x-x-2/>>5---7---------------------------|-------------------------------------x-x-|
|-----------------------------------------|-----------------------------------------|

|-----------------------------------10-10-|-10---10-----------------------------------------------|
|---------------------------------x-------|------10b(12)>>>>>r(10)---10b(12)>>>r10---10b(12)>>>r10|
|-----------------------------------------|-------------------------------------------------------|
|-7b(9)-----------------------------------|-------------------------------------------------------|
|-----------------------------------------|-------------------------------------------------------|
|-----------------------------------------|-------------------------------------------------------|

|-------------x----------------------12-12|-12---------12-----12-----12---------12------|
|-------------x----------------------14-15|-15b(17)>>>(15)>>>(15)>>>(15)>>>>>>>(15)>>>>>|
|-12--------------------------------------|---------------------------------------------|
|----14-----------------------------------|---------------------------------------------|
|-----------------------------------------|---------------------------------------------|
|-----------------------------------------|---------------------------------------------|

|-12---------12-----------15b(17)-----------------|-----------------------------------|
|-15b(17)>>>(15)>>>r15p12---------------15b(17)>>>|->>>>r15-12------------------------|
|-------------------------------------------------|------------14-b(16)r14-------12-14|
|-------------------------------------------------|-----------------------------------|
|-------------------------------------------------|-----------------------------------|
|-------------------------------------------------|-----------------------------------|
[ Tab from: http://www.guitartabs.cc/tabs/p/pink_floyd/young_lust_tab_ver_2.html ]
|-----------------------------------------|----------------------------------------|
|-----------------------------------------|----------------------------------------|
|-14b(15)>>>>>(16)r14-12-14b(16)-------\\\|--------------------12p0------12---14---|
|-----------------------------------------|----------12---14--------14-------------|
|-----------------------------------------|----/14---------------------------------|
|-----------------------------------------|----------------------------------------|

|-----------------------------------------|--------------x-15-15-15|
|-----------------------------------------|--------------x-15-15-15|
|-12---14---14---14b(16)-12-----14b(16)r14|------------------------|
|-----------------------------------------|------------------------|
|-----------------------------------------|------------------------|
|-----------------------------------------|------------------------|

|-15---15--------15--------15--------15--------15--------15-----------|
|-15---15b(16)---15b(17)---15b(16)---15b(17)---15b(17)---15b(17)r15---|
|---------------------------------------------------------------------|
|---------------------------------------------------------------------|
|---------------------------------------------------------------------|
|---------------------------------------------------------------------|

|-----------------------------------------|---------------------------------------------------|
|-15b(17)-----15b(17)r15---------/17---x-x|-15p12----12---------------------------------------|
|-----------------------------------------|-------14----14b(16)r14-12----14-12----------------|
|-----------------------------------------|---------------------------14-------14-12----------|
|-----------------------------------------|------------------------------------------14\------|
|-----------------------------------------|------------------------------------------------3-4|

|----------------------------|------------------------------------------|
|----------------------------|------------------------------------------|
|----------------------------|------------------------------------------|
|----------------------------|------------------------------------------|
|-----------------7\---------|------------------------------------------|
|-5-----------x-x------3-b(5)|-5---3-b(4)-5---3---5b(7)r(5)-----3-b(5)r3|

|------------------------|----------------------------|
|------------------------|----------------------------|
|------------------------|----------------------------|
|------------------------|----------------------------|
|-------------x-x-5p0-x-x|-5p0-5p0-x-5p0-x-7---------\|
|-0-----------x-x--------|----------------------------|
Comments