Pink Floyd - Young Lust Chords & Tabs

 

Young Lust Chords & Tabs

Pink Floyd Chords & Tabs

Version: 1 Type: Tab 0 ratings
1 star 2 stars 3 stars 4 stars 5 stars
comments

Young Lust Tab

   
#----------------------------------PLEASE NOTE---------------------------------#
#This file is the author's own work and represents their interpretation of the #
#song. You may only use this file for private study, scholarship, or research. #
#------------------------------------------------------------------------------#


Pink Floyd's "Young Lust" from the album "The Wall"

Transcribed by Walker rwalker@cerfnet.com



I am just a new boy       A stranger ...

|-------------------------------------------------------|
|--------------3-----------------------3----------------|
|--------2/4---------2-2---------2/4---------------2br~-|
|--------------------2-2--------------------------------|
|--------------------0-0--------------------------------|
|-0--0--------------------0--0--------------------------|

Where are all ....

|--------------------------------------------------|
|-----------------3--------------------------------|
|----------2/4----------------------2ahbr~---------|
|--------------------------------------------------|
|--------------------------------------------------|
|-0--0---------------------------------------------|

Who's gonna show this ....

|--------------------------------------------------|
|-----------------3--------------------------------|
|----------2/4-------------------------------------|
|-------------------------------------------9\-----|
|--------------------------------------------------|
|-0--0---------------------------------------------|

|--------------------------------------------------|
|------------------------------------------------3-|
|-------------------------------------------2/4----|
|--------------------------------------------------|
|--5-5-7-5--5-5-7-5--5-5-7-5--5-5-7-5--------------|
|--3-3-3-3--3-3-3-3--3-3-3-3--3-3-3-3-----0--------|

             Ohhhhh...I need a ...

             Am                       G
|-------------5-----------------------3-----------|
|-------------5-----------------------3-----------|
|------12\----5-----------------------4-----------|
|-9-9--12\----7-----------------------5-----------|
|-------------7-----------------------5-----------|
|-------------5-----------------------3-----------|

            Ohhh I need ....

   G G G# G# Am
|--3-3--4--4--5-----------------------------------------|
|--3-3--4--4--5-----------------------------------15b~\-|
|--4-4--5--5--5------------------------12h14-12---------|
|--5-5--6--6--7------------------------12----12-14------|
|--5-5--6--6--7-------------------2---------------------|
|--3-3--4--4--5-------------------0---------------------|

Will some woman in ....
                                       D D  A A     
|--------------------------------------2-2---------|
|-----------------3--------------------3-3--2-2----|
|----------2/4-------------------------2-2--2-2----|
|--------------------------------------0-0--2-2----|
|-------------------------------------------0-0----|
|-0--0---------------------------------------------|

Make me feel like ....

|--------------------------------------0-----------|
|-----------------3----------------------3---------|
|----------2/4----------------------2b-----2br-0---|
|--------------------------------------------------|
|--------------------------------------------------|
|-0--0---------------------------------------------|

Take this rock and ...

|--------------------------------------------------|
|-----------------3--------------------------------|
|----------2/4-----------------------2-0-0-2-------|
|------------------------------------2-0-0-2-------|
|------------------------------------0-0-0-0-------|
|-0--0---------------------------------------------|
[ Tab from: http://www.guitartabs.cc/tabs/p/pink_floyd/young_lust_tab.html ]
Ohhh babe set ....
|-----------------------------------------------3\--|
|-----------------------------------------------3\--|
|-------0--2-2b-2-2p0-------------------------------|
|----2----------------2p0--2p0---------------2~-----|
|-------------------------------2p0--2p0------------|
|-0--------------------------------------2p0--------|


|--------------------------------------------------|
|-----------------------------------------------3--|
|-------------------------------------------2/4----|
|-----------------------------------------2--------|
|--5-5-7-5--5-5-7-5--5-5-7-5--5-5-7-5--------------|
|--3-3-3-3--3-3-3-3--3-3-3-3--3-3-3-3---0----------|

        Ohhhhh...I need a ...

          Am                     G
|----------5-------------------------------------------------------|
|----------5-------------------------------------------------------|
|-----12\--5-------------------------------------------------------|
|-9-9-12\--7-------------------------------------------------------|
|----------7---------------------5-5-7-5--5-5-7-5--5-5-7-5--5-5-7-5|
|----------5---------------------3-3-3-3--3-3-3-3--3-3-3-3--3-3-3-3|

            Ohhh I need a ....

   G G G# G# Am
|--3-3--4--4--5-----------------------------------------|
|--3-3--4--4--5-----------------------------------------|
|--4-4--5--5--5-----------------------------------------|
|--5-5--6--6--7-----------------------------------------|
|--5-5--6--6--7-------------------2---------------------|
|--3-3--4--4--5-------------------0---------------------|

Solo:
Begins at 1:39
Rhytym Em
|---------------------------------------------------------------------|
|-------------------------------------15-15-15-15---15---15-----------|
|--------------------------2-2-2ahb~-----------14br-14br-14br-12------|
|-----------5b-7-7-7b-5~-----------------------------------------14~\-|
|-------5-7-----------------------------------------------------------|
|-3h5/7---------------------------------------------------------------|

1:51
Rhythm Em
|--------12-12--12-12--12-12-12-12-12-12--------15b----|
|-12/15--15b----15b----15b---15b---15b--15br-12--------|
|------------------------------------------------------|
|------------------------------------------------------|
|------------------------------------------------------|
|------------------------------------------------------|

1:56
Rhythm Em
|-----------------------------------------|
|-15br-15p12------------------------------|
|------------14br~--12-14-14b-14-14ahbr---|
|-----------------------------------------|
|-----------------------------------------|
|-----------------------------------------|

2:01
Rhythm  G                                   Am
|----------------------------------------------------|
|-------------8ahb-8-8ahb-8-8b-8-10-10b-8~--10br~----|
|---------7-9----------------------------------------|
|----7/9---------------------------------------------|
|-5--------------------------------------------------|
|----------------------------------------------------|

2:09
Rhythm  Am                        G
|-15-15-15-15b-15-15b-15-15b-15br-----------15-------|
|-15-15-15-15b-15-15b-15-15b-15br-15~-15br~-15-------|
|----------------------------------------------------|
|----------------------------------------------------|
|----------------------------------------------------|
|----------------------------------------------------|

2:14
Rhythm G
|----------------------------------------------------|
|-12-15p12----12-------------------------------------|
|----------14----14br-12----14-12--------------------|
|------------------------14-------14-12--------------|
|---------------------------------------12\----------|
|----------------------------------------------------|

2:17
Rhythm Am               Em
|----------------------------------------------------|
|----------------------------------------------------|
|----------------------------------------------------|
|----------------------------------------------------|
|---------------------------5-5-5-5-5/7\-------------|
|--5--5-3-5-3-5-3-5b-3br-0---------------------------|
Comments